  0
SECTION
  2
HEADER
  9
$ACADVER
  1
AC1018
  9
$ACADMAINTVER
 70
     0
  9
$DWGCODEPAGE
  3
ANSI_936
  9
$INSBASE
 10
0.0
 20
0.0
 30
0.0
  9
$EXTMIN
 10
1.000000000000000E+20
 20
1.000000000000000E+20
 30
1.000000000000000E+20
  9
$EXTMAX
 10
-1.000000000000000E+20
 20
-1.000000000000000E+20
 30
-1.000000000000000E+20
  9
$LIMMIN
 10
0.0
 20
0.0
  9
$LIMMAX
 10
12.0
 20
9.0
  9
$ORTHOMODE
 70
     0
  9
$REGENMODE
 70
     1
  9
$FILLMODE
 70
     1
  9
$QTEXTMODE
 70
     0
  9
$MIRRTEXT
 70
     1
  9
$LTSCALE
 40
1.0
  9
$ATTMODE
 70
     1
  9
$TEXTSIZE
 40
0.2
  9
$TRACEWID
 40
0.05
  9
$TEXTSTYLE
  7
Standard
  9
$CLAYER
  8
0
  9
$CELTYPE
  6
ByLayer
  9
$CECOLOR
 62
   256
  9
$CELTSCALE
 40
1.0
  9
$DISPSILH
 70
     0
  9
$DIMSCALE
 40
1.0
  9
$DIMASZ
 40
0.18
  9
$DIMEXO
 40
0.0625
  9
$DIMDLI
 40
0.38
  9
$DIMRND
 40
0.0
  9
$DIMDLE
 40
0.0
  9
$DIMEXE
 40
0.18
  9
$DIMTP
 40
0.0
  9
$DIMTM
 40
0.0
  9
$DIMTXT
 40
0.18
  9
$DIMCEN
 40
0.09
  9
$DIMTSZ
 40
0.0
  9
$DIMTOL
 70
     0
  9
$DIMLIM
 70
     0
  9
$DIMTIH
 70
     1
  9
$DIMTOH
 70
     1
  9
$DIMSE1
 70
     0
  9
$DIMSE2
 70
     0
  9
$DIMTAD
 70
     0
  9
$DIMZIN
 70
     0
  9
$DIMBLK
  1

  9
$DIMASO
 70
     1
  9
$DIMSHO
 70
     1
  9
$DIMPOST
  1

  9
$DIMAPOST
  1

  9
$DIMALT
 70
     0
  9
$DIMALTD
 70
     2
  9
$DIMALTF
 40
25.4
  9
$DIMLFAC
 40
1.0
  9
$DIMTOFL
 70
     0
  9
$DIMTVP
 40
0.0
  9
$DIMTIX
 70
     0
  9
$DIMSOXD
 70
     0
  9
$DIMSAH
 70
     0
  9
$DIMBLK1
  1

  9
$DIMBLK2
  1

  9
$DIMSTYLE
  2
Standard
  9
$DIMCLRD
 70
     0
  9
$DIMCLRE
 70
     0
  9
$DIMCLRT
 70
     0
  9
$DIMTFAC
 40
1.0
  9
$DIMGAP
 40
0.09
  9
$DIMJUST
 70
     0
  9
$DIMSD1
 70
     0
  9
$DIMSD2
 70
     0
  9
$DIMTOLJ
 70
     1
  9
$DIMTZIN
 70
     0
  9
$DIMALTZ
 70
     0
  9
$DIMALTTZ
 70
     0
  9
$DIMUPT
 70
     0
  9
$DIMDEC
 70
     4
  9
$DIMTDEC
 70
     4
  9
$DIMALTU
 70
     2
  9
$DIMALTTD
 70
     2
  9
$DIMTXSTY
  7
Standard
  9
$DIMAUNIT
 70
     0
  9
$DIMADEC
 70
     0
  9
$DIMALTRND
 40
0.0
  9
$DIMAZIN
 70
     0
  9
$DIMDSEP
 70
    46
  9
$DIMATFIT
 70
     3
  9
$DIMFRAC
 70
     0
  9
$DIMLDRBLK
  1

  9
$DIMLUNIT
 70
     2
  9
$DIMLWD
 70
    -2
  9
$DIMLWE
 70
    -2
  9
$DIMTMOVE
 70
     0
  9
$LUNITS
 70
     2
  9
$LUPREC
 70
     4
  9
$SKETCHINC
 40
0.1
  9
$FILLETRAD
 40
0.5
  9
$AUNITS
 70
     0
  9
$AUPREC
 70
     0
  9
$MENU
  1
.
  9
$ELEVATION
 40
0.0
  9
$PELEVATION
 40
0.0
  9
$THICKNESS
 40
0.0
  9
$LIMCHECK
 70
     0
  9
$CHAMFERA
 40
0.5
  9
$CHAMFERB
 40
0.5
  9
$CHAMFERC
 40
1.0
  9
$CHAMFERD
 40
0.0
  9
$SKPOLY
 70
     0
  9
$TDCREATE
 40
2456897.368676389
  9
$TDUCREATE
 40
2456897.035343056
  9
$TDUPDATE
 40
2456897.3686764
  9
$TDUUPDATE
 40
2456897.035343067
  9
$TDINDWG
 40
0.0000000116
  9
$TDUSRTIMER
 40
0.0000000116
  9
$USRTIMER
 70
     1
  9
$ANGBASE
 50
0.0
  9
$ANGDIR
 70
     0
  9
$PDMODE
 70
     0
  9
$PDSIZE
 40
0.0
  9
$PLINEWID
 40
0.0
  9
$SPLFRAME
 70
     0
  9
$SPLINETYPE
 70
     6
  9
$SPLINESEGS
 70
     8
  9
$HANDSEED
  5
64C
  9
$SURFTAB1
 70
     6
  9
$SURFTAB2
 70
     6
  9
$SURFTYPE
 70
     6
  9
$SURFU
 70
     6
  9
$SURFV
 70
     6
  9
$UCSBASE
  2

  9
$UCSNAME
  2

  9
$UCSORG
 10
0.0
 20
0.0
 30
0.0
  9
$UCSXDIR
 10
1.0
 20
0.0
 30
0.0
  9
$UCSYDIR
 10
0.0
 20
1.0
 30
0.0
  9
$UCSORTHOREF
  2

  9
$UCSORTHOVIEW
 70
     0
  9
$UCSORGTOP
 10
0.0
 20
0.0
 30
0.0
  9
$UCSORGBOTTOM
 10
0.0
 20
0.0
 30
0.0
  9
$UCSORGLEFT
 10
0.0
 20
0.0
 30
0.0
  9
$UCSORGRIGHT
 10
0.0
 20
0.0
 30
0.0
  9
$UCSORGFRONT
 10
0.0
 20
0.0
 30
0.0
  9
$UCSORGBACK
 10
0.0
 20
0.0
 30
0.0
  9
$PUCSBASE
  2

  9
$PUCSNAME
  2

  9
$PUCSORG
 10
0.0
 20
0.0
 30
0.0
  9
$PUCSXDIR
 10
1.0
 20
0.0
 30
0.0
  9
$PUCSYDIR
 10
0.0
 20
1.0
 30
0.0
  9
$PUCSORTHOREF
  2

  9
$PUCSORTHOVIEW
 70
     0
  9
$PUCSORGTOP
 10
0.0
 20
0.0
 30
0.0
  9
$PUCSORGBOTTOM
 10
0.0
 20
0.0
 30
0.0
  9
$PUCSORGLEFT
 10
0.0
 20
0.0
 30
0.0
  9
$PUCSORGRIGHT
 10
0.0
 20
0.0
 30
0.0
  9
$PUCSORGFRONT
 10
0.0
 20
0.0
 30
0.0
  9
$PUCSORGBACK
 10
0.0
 20
0.0
 30
0.0
  9
$USERI1
 70
     0
  9
$USERI2
 70
     0
  9
$USERI3
 70
     0
  9
$USERI4
 70
     0
  9
$USERI5
 70
     0
  9
$USERR1
 40
0.0
  9
$USERR2
 40
0.0
  9
$USERR3
 40
0.0
  9
$USERR4
 40
0.0
  9
$USERR5
 40
0.0
  9
$WORLDVIEW
 70
     1
  9
$SHADEDGE
 70
     3
  9
$SHADEDIF
 70
    70
  9
$TILEMODE
 70
     1
  9
$MAXACTVP
 70
    64
  9
$PINSBASE
 10
0.0
 20
0.0
 30
0.0
  9
$PLIMCHECK
 70
     0
  9
$PEXTMIN
 10
1.000000000000000E+20
 20
1.000000000000000E+20
 30
1.000000000000000E+20
  9
$PEXTMAX
 10
-1.000000000000000E+20
 20
-1.000000000000000E+20
 30
-1.000000000000000E+20
  9
$PLIMMIN
 10
0.0
 20
0.0
  9
$PLIMMAX
 10
12.0
 20
9.0
  9
$UNITMODE
 70
     0
  9
$VISRETAIN
 70
     1
  9
$PLINEGEN
 70
     0
  9
$PSLTSCALE
 70
     1
  9
$TREEDEPTH
 70
  3020
  9
$CMLSTYLE
  2
Standard
  9
$CMLJUST
 70
     0
  9
$CMLSCALE
 40
1.0
  9
$PROXYGRAPHICS
 70
     1
  9
$MEASUREMENT
 70
     0
  9
$CELWEIGHT
370
    -1
  9
$ENDCAPS
280
     0
  9
$JOINSTYLE
280
     0
  9
$LWDISPLAY
290
     1
  9
$INSUNITS
 70
     1
  9
$HYPERLINKBASE
  1

  9
$STYLESHEET
  1

  9
$XEDIT
290
     1
  9
$CEPSNTYPE
380
     0
  9
$PSTYLEMODE
290
     1
  9
$FINGERPRINTGUID
  2
{DDCAB654-87F9-4B3A-AE5C-E515174B712C}
  9
$VERSIONGUID
  2
{FAEB1C32-E019-11D5-929B-00C0DF256EC4}
  9
$EXTNAMES
290
     1
  9
$PSVPSCALE
 40
0.0
  9
$OLESTARTUP
290
     0
  9
$SORTENTS
280
   127
  9
$INDEXCTL
280
     0
  9
$HIDETEXT
280
     1
  9
$XCLIPFRAME
290
     0
  9
$HALOGAP
280
     0
  9
$OBSCOLOR
 70
   257
  9
$OBSLTYPE
280
     0
  9
$INTERSECTIONDISPLAY
280
     0
  9
$INTERSECTIONCOLOR
 70
   257
  9
$DIMASSOC
280
     2
  9
$PROJECTNAME
  1

  0
ENDSEC
  0
SECTION
  2
CLASSES
  0
CLASS
  1
ACDBDICTIONARYWDFLT
  2
AcDbDictionaryWithDefault
  3
ObjectDBX Classes
 90
        0
 91
        3
280
     0
281
     0
  0
CLASS
  1
VISUALSTYLE
  2
AcDbVisualStyle
  3
ObjectDBX Classes
 90
     4095
 91
        3
280
     0
281
     0
  0
ENDSEC
  0
SECTION
  2
TABLES
  0
TABLE
  2
VPORT
  5
8
330
0
100
AcDbSymbolTable
 70
     1
  0
VPORT
  5
29
330
8
100
AcDbSymbolTableRecord
100
AcDbViewportTableRecord
  2
*Active
 70
     0
 10
0.0
 20
0.0
 11
1.0
 21
1.0
 12
0.0
 22
0.0
 13
0.0
 23
0.0
 14
0.5
 24
0.5
 15
0.5
 25
0.5
 16
0.0
 26
0.0
 36
1.0
 17
208.6680555033886
 27
129.3518805286429
 37
0.0
 40
258.7037610572859
 41
1.403181506751264
 42
50.0
 43
0.0
 44
0.0
 50
0.0
 51
0.0
 71
     0
 72
   100
 73
     1
 74
     3
 75
     0
 76
     0
 77
     0
 78
     0
281
     0
 65
     1
110
0.0
120
0.0
130
0.0
111
1.0
121
0.0
131
0.0
112
0.0
122
1.0
132
0.0
 79
     0
146
0.0
  0
ENDTAB
  0
TABLE
  2
LTYPE
  5
5
330
0
100
AcDbSymbolTable
 70
     1
  0
LTYPE
  5
14
330
5
100
AcDbSymbolTableRecord
100
AcDbLinetypeTableRecord
  2
ByBlock
 70
     0
  3

 72
    65
 73
     0
 40
0.0
  0
LTYPE
  5
15
330
5
100
AcDbSymbolTableRecord
100
AcDbLinetypeTableRecord
  2
ByLayer
 70
     0
  3

 72
    65
 73
     0
 40
0.0
  0
LTYPE
  5
16
330
5
100
AcDbSymbolTableRecord
100
AcDbLinetypeTableRecord
  2
Continuous
 70
     0
  3
Solid line
 72
    65
 73
     0
 40
0.0
  0
ENDTAB
  0
TABLE
  2
LAYER
  5
2
330
0
100
AcDbSymbolTable
 70
     2
  0
LAYER
  5
10
330
2
100
AcDbSymbolTableRecord
100
AcDbLayerTableRecord
  2
0
 70
     0
 62
     7
  6
Continuous
370
    -3
390
F
  0
LAYER
  5
3B
330
2
100
AcDbSymbolTableRecord
100
AcDbLayerTableRecord
  2
\U+56FE\U+5C42 1
 70
     0
 62
     7
  6
Continuous
370
    -3
390
F
  0
ENDTAB
  0
TABLE
  2
STYLE
  5
3
330
0
100
AcDbSymbolTable
 70
     1
  0
STYLE
  5
11
330
3
100
AcDbSymbolTableRecord
100
AcDbTextStyleTableRecord
  2
Standard
 70
     0
 40
0.0
 41
1.0
 50
0.0
 71
     0
 42
0.2
  3
txt
  4

  0
ENDTAB
  0
TABLE
  2
VIEW
  5
6
330
0
100
AcDbSymbolTable
 70
     0
  0
ENDTAB
  0
TABLE
  2
UCS
  5
7
330
0
100
AcDbSymbolTable
 70
     0
  0
ENDTAB
  0
TABLE
  2
APPID
  5
9
330
0
100
AcDbSymbolTable
 70
     1
  0
APPID
  5
12
330
9
100
AcDbSymbolTableRecord
100
AcDbRegAppTableRecord
  2
ACAD
 70
     0
  0
ENDTAB
  0
TABLE
  2
DIMSTYLE
  5
A
330
0
100
AcDbSymbolTable
 70
     1
100
AcDbDimStyleTable
  0
DIMSTYLE
105
27
330
A
100
AcDbSymbolTableRecord
100
AcDbDimStyleTableRecord
  2
Standard
 70
     0
340
11
  0
ENDTAB
  0
TABLE
  2
BLOCK_RECORD
  5
1
330
0
100
AcDbSymbolTable
 70
     9
  0
BLOCK_RECORD
  5
1F
330
1
100
AcDbSymbolTableRecord
100
AcDbBlockTableRecord
  2
*Model_Space
340
22
  0
BLOCK_RECORD
  5
1B
330
1
100
AcDbSymbolTableRecord
100
AcDbBlockTableRecord
  2
*Paper_Space
340
1E
  0
BLOCK_RECORD
  5
23
330
1
100
AcDbSymbolTableRecord
100
AcDbBlockTableRecord
  2
*Paper_Space0
340
26
  0
BLOCK_RECORD
  5
84
330
1
100
AcDbSymbolTableRecord
100
AcDbBlockTableRecord
  2
block 2
340
0
102
{BLKREFS
331
85
102
}
  0
BLOCK_RECORD
  5
3A4
330
1
100
AcDbSymbolTableRecord
100
AcDbBlockTableRecord
  2
block 3
340
0
102
{BLKREFS
331
3A5
102
}
  0
BLOCK_RECORD
  5
3A9
330
1
100
AcDbSymbolTableRecord
100
AcDbBlockTableRecord
  2
block 4
340
0
102
{BLKREFS
331
3AA
102
}
  0
BLOCK_RECORD
  5
3AD
330
1
100
AcDbSymbolTableRecord
100
AcDbBlockTableRecord
  2
block 5
340
0
102
{BLKREFS
331
3AE
102
}
  0
BLOCK_RECORD
  5
3B1
330
1
100
AcDbSymbolTableRecord
100
AcDbBlockTableRecord
  2
block 6
340
0
102
{BLKREFS
331
3B2
102
}
  0
BLOCK_RECORD
  5
41A
330
1
100
AcDbSymbolTableRecord
100
AcDbBlockTableRecord
  2
block 7
340
0
102
{BLKREFS
331
41B
102
}
  0
BLOCK_RECORD
  5
432
330
1
100
AcDbSymbolTableRecord
100
AcDbBlockTableRecord
  2
block 8
340
0
102
{BLKREFS
331
433
102
}
  0
BLOCK_RECORD
  5
44A
330
1
100
AcDbSymbolTableRecord
100
AcDbBlockTableRecord
  2
block 9
340
0
102
{BLKREFS
331
44B
102
}
  0
ENDTAB
  0
ENDSEC
  0
SECTION
  2
BLOCKS
  0
BLOCK
  5
20
330
1F
100
AcDbEntity
  8
0
100
AcDbBlockBegin
  2
*Model_Space
 70
     0
 71
     0
 10
0.0
 20
0.0
 30
0.0
  3
*Model_Space
  1

  0
ENDBLK
  5
21
330
1F
100
AcDbEntity
  8
0
100
AcDbBlockEnd
  0
BLOCK
  5
1C
330
1B
100
AcDbEntity
 67
     1
  8
0
100
AcDbBlockBegin
  2
*Paper_Space
 70
     0
 71
     0
 10
0.0
 20
0.0
 30
0.0
  3
*Paper_Space
  1

  0
ENDBLK
  5
1D
330
1B
100
AcDbEntity
 67
     1
  8
0
100
AcDbBlockEnd
  0
BLOCK
  5
24
330
23
100
AcDbEntity
  8
0
100
AcDbBlockBegin
  2
*Paper_Space0
 70
     0
 71
     0
 10
0.0
 20
0.0
 30
0.0
  3
*Paper_Space0
  1

  0
ENDBLK
  5
25
330
23
100
AcDbEntity
  8
0
100
AcDbBlockEnd
  0
BLOCK
  5
86
330
84
100
AcDbEntity
  8
0
100
AcDbBlockBegin
  2
block 2
 70
     0
 71
     0
 10
0.0
 20
0.0
 30
0.0
  3
block 2
  1

  0
POLYLINE
  5
88
330
84
100
AcDbEntity
  8
\U+56FE\U+5C42 1
 62
     7
420
 16777215
370
    35
100
AcDb2dPolyline
 66
     1
 10
0.0
 20
0.0
 30
0.0
  0
VERTEX
  5
89
330
88
100
AcDbEntity
  8
\U+56FE\U+5C42 1
 62
     7
420
 16777215
370
    35
100
AcDbVertex
100
AcDb2dVertex
 10
79.88142901648798
 20
71.79716795080071
 30
0.0
  0
VERTEX
  5
8A
330
88
100
AcDbEntity
  8
\U+56FE\U+5C42 1
 62
     7
420
 16777215
370
    35
100
AcDbVertex
100
AcDb2dVertex
 10
369.8812987356547
 20
71.79716795080071
 30
0.0
  0
SEQEND
  5
8B
330
88
100
AcDbEntity
  8
\U+56FE\U+5C42 1
370
    35
  0
POLYLINE
  5
8C
330
84
100
AcDbEntity
  8
\U+56FE\U+5C42 1
 62
     7
420
 16777215
370
    35
100
AcDb2dPolyline
 66
     1
 10
0.0
 20
0.0
 30
0.0
  0
VERTEX
  5
8D
330
8C
100
AcDbEntity
  8
\U+56FE\U+5C42 1
 62
     7
420
 16777215
370
    35
100
AcDbVertex
100
AcDb2dVertex
 10
79.88142901648798
 20
71.79716795080071
 30
0.0
  0
VERTEX
  5
8E
330
8C
100
AcDbEntity
  8
\U+56FE\U+5C42 1
 62
     7
420
 16777215
370
    35
100
AcDbVertex
100
AcDb2dVertex
 10
79.88142901648798
 20
41.79727646524513
 30
0.0
  0
SEQEND
  5
8F
330
8C
100
AcDbEntity
  8
\U+56FE\U+5C42 1
370
    35
  0
POLYLINE
  5
90
330
84
100
AcDbEntity
  8
\U+56FE\U+5C42 1
 62
     7
420
 16777215
370
    35
100
AcDb2dPolyline
 66
     1
 10
0.0
 20
0.0
 30
0.0
  0
VERTEX
  5
91
330
90
100
AcDbEntity
  8
\U+56FE\U+5C42 1
 62
     7
420
 16777215
370
    35
100
AcDbVertex
100
AcDb2dVertex
 10
79.88142901648798
 20
61.79743379531453
 30
0.0
  0
VERTEX
  5
92
330
90
100
AcDbEntity
  8
\U+56FE\U+5C42 1
 62
     7
420
 16777215
370
    35
100
AcDbVertex
100
AcDb2dVertex
 10
369.8812987356547
 20
61.79743379531453
 30
0.0
  0
SEQEND
  5
93
330
90
100
AcDbEntity
  8
\U+56FE\U+5C42 1
370
    35
  0
POLYLINE
  5
94
330
84
100
AcDbEntity
  8
\U+56FE\U+5C42 1
 62
     7
420
 16777215
370
    35
100
AcDb2dPolyline
 66
     1
 10
0.0
 20
0.0
 30
0.0
  0
VERTEX
  5
95
330
94
100
AcDbEntity
  8
\U+56FE\U+5C42 1
 62
     7
420
 16777215
370
    35
100
AcDbVertex
100
AcDb2dVertex
 10
79.88142901648798
 20
41.79727646524513
 30
0.0
  0
VERTEX
  5
96
330
94
100
AcDbEntity
  8
\U+56FE\U+5C42 1
 62
     7
420
 16777215
370
    35
100
AcDbVertex
100
AcDb2dVertex
 10
369.8812987356547
 20
41.79727646524513
 30
0.0
  0
SEQEND
  5
97
330
94
100
AcDbEntity
  8
\U+56FE\U+5C42 1
370
    35
  0
POLYLINE
  5
98
330
84
100
AcDbEntity
  8
\U+56FE\U+5C42 1
 62
     7
420
 16777215
370
    35
100
AcDb2dPolyline
 66
     1
 10
0.0
 20
0.0
 30
0.0
  0
VERTEX
  5
99
330
98
100
AcDbEntity
  8
\U+56FE\U+5C42 1
 62
     7
420
 16777215
370
    35
100
AcDbVertex
100
AcDb2dVertex
 10
109.8814927568178
 20
71.79716795080071
 30
0.0
  0
VERTEX
  5
9A
330
98
100
AcDbEntity
  8
\U+56FE\U+5C42 1
 62
     7
420
 16777215
370
    35
100
AcDbVertex
100
AcDb2dVertex
 10
109.8814927568178
 20
41.79727646524513
 30
0.0
  0
SEQEND
  5
9B
330
98
100
AcDbEntity
  8
\U+56FE\U+5C42 1
370
    35
  0
POLYLINE
  5
9C
330
84
100
AcDbEntity
  8
\U+56FE\U+5C42 1
 62
     7
420
 16777215
370
    35
100
AcDb2dPolyline
 66
     1
 10
0.0
 20
0.0
 30
0.0
  0
VERTEX
  5
9D
330
9C
100
AcDbEntity
  8
\U+56FE\U+5C42 1
 62
     7
420
 16777215
370
    35
100
AcDbVertex
100
AcDb2dVertex
 10
149.8814629074081
 20
71.79716795080071
 30
0.0
  0
VERTEX
  5
9E
330
9C
100
AcDbEntity
  8
\U+56FE\U+5C42 1
 62
     7
420
 16777215
370
    35
100
AcDbVertex
100
AcDb2dVertex
 10
149.8814629074081
 20
41.79727646524513
 30
0.0
  0
SEQEND
  5
9F
330
9C
100
AcDbEntity
  8
\U+56FE\U+5C42 1
370
    35
  0
POLYLINE
  5
A0
330
84
100
AcDbEntity
  8
\U+56FE\U+5C42 1
 62
     7
420
 16777215
370
    35
100
AcDb2dPolyline
 66
     1
 10
0.0
 20
0.0
 30
0.0
  0
VERTEX
  5
A1
330
A0
100
AcDbEntity
  8
\U+56FE\U+5C42 1
 62
     7
420
 16777215
370
    35
100
AcDbVertex
100
AcDb2dVertex
 10
169.8814479827033
 20
71.79716795080071
 30
0.0
  0
VERTEX
  5
A2
330
A0
100
AcDbEntity
  8
\U+56FE\U+5C42 1
 62
     7
420
 16777215
370
    35
100
AcDbVertex
100
AcDb2dVertex
 10
169.8814479827033
 20
41.79727646524513
 30
0.0
  0
SEQEND
  5
A3
330
A0
100
AcDbEntity
  8
\U+56FE\U+5C42 1
370
    35
  0
POLYLINE
  5
A4
330
84
100
AcDbEntity
  8
\U+56FE\U+5C42 1
 62
     7
420
 16777215
370
    35
100
AcDb2dPolyline
 66
     1
 10
0.0
 20
0.0
 30
0.0
  0
VERTEX
  5
A5
330
A4
100
AcDbEntity
  8
\U+56FE\U+5C42 1
 62
     7
420
 16777215
370
    35
100
AcDbVertex
100
AcDb2dVertex
 10
179.881526647738
 20
71.79716795080071
 30
0.0
  0
VERTEX
  5
A6
330
A4
100
AcDbEntity
  8
\U+56FE\U+5C42 1
 62
     7
420
 16777215
370
    35
100
AcDbVertex
100
AcDb2dVertex
 10
179.881526647738
 20
41.79727646524513
 30
0.0
  0
SEQEND
  5
A7
330
A4
100
AcDbEntity
  8
\U+56FE\U+5C42 1
370
    35
  0
POLYLINE
  5
A8
330
84
100
AcDbEntity
  8
\U+56FE\U+5C42 1
 62
     7
420
 16777215
370
    35
100
AcDb2dPolyline
 66
     1
 10
0.0
 20
0.0
 30
0.0
  0
VERTEX
  5
A9
330
A8
100
AcDbEntity
  8
\U+56FE\U+5C42 1
 62
     7
420
 16777215
370
    35
100
AcDbVertex
100
AcDb2dVertex
 10
199.8813394682588
 20
71.79716795080071
 30
0.0
  0
VERTEX
  5
AA
330
A8
100
AcDbEntity
  8
\U+56FE\U+5C42 1
 62
     7
420
 16777215
370
    35
100
AcDbVertex
100
AcDb2dVertex
 10
199.8813394682588
 20
41.79727646524513
 30
0.0
  0
SEQEND
  5
AB
330
A8
100
AcDbEntity
  8
\U+56FE\U+5C42 1
370
    35
  0
POLYLINE
  5
AC
330
84
100
AcDbEntity
  8
\U+56FE\U+5C42 1
 62
     7
420
 16777215
370
    35
100
AcDb2dPolyline
 66
     1
 10
0.0
 20
0.0
 30
0.0
  0
VERTEX
  5
AD
330
AC
100
AcDbEntity
  8
\U+56FE\U+5C42 1
 62
     7
420
 16777215
370
    35
100
AcDbVertex
100
AcDb2dVertex
 10
229.881575463363
 20
71.79716795080071
 30
0.0
  0
VERTEX
  5
AE
330
AC
100
AcDbEntity
  8
\U+56FE\U+5C42 1
 62
     7
420
 16777215
370
    35
100
AcDbVertex
100
AcDb2dVertex
 10
229.881575463363
 20
41.79727646524513
 30
0.0
  0
SEQEND
  5
AF
330
AC
100
AcDbEntity
  8
\U+56FE\U+5C42 1
370
    35
  0
POLYLINE
  5
B0
330
84
100
AcDbEntity
  8
\U+56FE\U+5C42 1
 62
     7
420
 16777215
370
    35
100
AcDb2dPolyline
 66
     1
 10
0.0
 20
0.0
 30
0.0
  0
VERTEX
  5
B1
330
B0
100
AcDbEntity
  8
\U+56FE\U+5C42 1
 62
     7
420
 16777215
370
    35
100
AcDbVertex
100
AcDb2dVertex
 10
259.8814669489186
 20
71.79716795080071
 30
0.0
  0
VERTEX
  5
B2
330
B0
100
AcDbEntity
  8
\U+56FE\U+5C42 1
 62
     7
420
 16777215
370
    35
100
AcDbVertex
100
AcDb2dVertex
 10
259.8814669489186
 20
41.79727646524513
 30
0.0
  0
SEQEND
  5
B3
330
B0
100
AcDbEntity
  8
\U+56FE\U+5C42 1
370
    35
  0
POLYLINE
  5
B4
330
84
100
AcDbEntity
  8
\U+56FE\U+5C42 1
 62
     7
420
 16777215
370
    35
100
AcDb2dPolyline
 66
     1
 10
0.0
 20
0.0
 30
0.0
  0
VERTEX
  5
B5
330
B4
100
AcDbEntity
  8
\U+56FE\U+5C42 1
 62
     7
420
 16777215
370
    35
100
AcDbVertex
100
AcDb2dVertex
 10
279.8812797694394
 20
71.79716795080071
 30
0.0
  0
VERTEX
  5
B6
330
B4
100
AcDbEntity
  8
\U+56FE\U+5C42 1
 62
     7
420
 16777215
370
    35
100
AcDbVertex
100
AcDb2dVertex
 10
279.8812797694394
 20
41.79727646524513
 30
0.0
  0
SEQEND
  5
B7
330
B4
100
AcDbEntity
  8
\U+56FE\U+5C42 1
370
    35
  0
POLYLINE
  5
B8
330
84
100
AcDbEntity
  8
\U+56FE\U+5C42 1
 62
     7
420
 16777215
370
    35
100
AcDb2dPolyline
 66
     1
 10
0.0
 20
0.0
 30
0.0
  0
VERTEX
  5
B9
330
B8
100
AcDbEntity
  8
\U+56FE\U+5C42 1
 62
     7
420
 16777215
370
    35
100
AcDbVertex
100
AcDb2dVertex
 10
299.8814370995088
 20
71.79716795080071
 30
0.0
  0
VERTEX
  5
BA
330
B8
100
AcDbEntity
  8
\U+56FE\U+5C42 1
 62
     7
420
 16777215
370
    35
100
AcDbVertex
100
AcDb2dVertex
 10
299.8814370995088
 20
41.79727646524513
 30
0.0
  0
SEQEND
  5
BB
330
B8
100
AcDbEntity
  8
\U+56FE\U+5C42 1
370
    35
  0
POLYLINE
  5
BC
330
84
100
AcDbEntity
  8
\U+56FE\U+5C42 1
 62
     7
420
 16777215
370
    35
100
AcDb2dPolyline
 66
     1
 10
0.0
 20
0.0
 30
0.0
  0
VERTEX
  5
BD
330
BC
100
AcDbEntity
  8
\U+56FE\U+5C42 1
 62
     7
420
 16777215
370
    35
100
AcDbVertex
100
AcDb2dVertex
 10
319.8812499200297
 20
71.79716795080071
 30
0.0
  0
VERTEX
  5
BE
330
BC
100
AcDbEntity
  8
\U+56FE\U+5C42 1
 62
     7
420
 16777215
370
    35
100
AcDbVertex
100
AcDb2dVertex
 10
319.8812499200297
 20
41.79727646524513
 30
0.0
  0
SEQEND
  5
BF
330
BC
100
AcDbEntity
  8
\U+56FE\U+5C42 1
370
    35
  0
POLYLINE
  5
C0
330
84
100
AcDbEntity
  8
\U+56FE\U+5C42 1
 62
     7
420
 16777215
370
    35
100
AcDb2dPolyline
 66
     1
 10
0.0
 20
0.0
 30
0.0
  0
VERTEX
  5
C1
330
C0
100
AcDbEntity
  8
\U+56FE\U+5C42 1
 62
     7
420
 16777215
370
    35
100
AcDbVertex
100
AcDb2dVertex
 10
329.8813285850644
 20
71.79716795080071
 30
0.0
  0
VERTEX
  5
C2
330
C0
100
AcDbEntity
  8
\U+56FE\U+5C42 1
 62
     7
420
 16777215
370
    35
100
AcDbVertex
100
AcDb2dVertex
 10
329.8813285850644
 20
41.79727646524513
 30
0.0
  0
SEQEND
  5
C3
330
C0
100
AcDbEntity
  8
\U+56FE\U+5C42 1
370
    35
  0
POLYLINE
  5
C4
330
84
100
AcDbEntity
  8
\U+56FE\U+5C42 1
 62
     7
420
 16777215
370
    35
100
AcDb2dPolyline
 66
     1
 10
0.0
 20
0.0
 30
0.0
  0
VERTEX
  5
C5
330
C4
100
AcDbEntity
  8
\U+56FE\U+5C42 1
 62
     7
420
 16777215
370
    35
100
AcDbVertex
100
AcDb2dVertex
 10
349.8814859151338
 20
71.79716795080071
 30
0.0
  0
VERTEX
  5
C6
330
C4
100
AcDbEntity
  8
\U+56FE\U+5C42 1
 62
     7
420
 16777215
370
    35
100
AcDbVertex
100
AcDb2dVertex
 10
349.8814859151338
 20
41.79727646524513
 30
0.0
  0
SEQEND
  5
C7
330
C4
100
AcDbEntity
  8
\U+56FE\U+5C42 1
370
    35
  0
POLYLINE
  5
C8
330
84
100
AcDbEntity
  8
\U+56FE\U+5C42 1
 62
     7
420
 16777215
370
    35
100
AcDb2dPolyline
 66
     1
 10
0.0
 20
0.0
 30
0.0
  0
VERTEX
  5
C9
330
C8
100
AcDbEntity
  8
\U+56FE\U+5C42 1
 62
     7
420
 16777215
370
    35
100
AcDbVertex
100
AcDb2dVertex
 10
369.8812987356547
 20
71.79716795080071
 30
0.0
  0
VERTEX
  5
CA
330
C8
100
AcDbEntity
  8
\U+56FE\U+5C42 1
 62
     7
420
 16777215
370
    35
100
AcDbVertex
100
AcDb2dVertex
 10
369.8812987356547
 20
41.79727646524513
 30
0.0
  0
SEQEND
  5
CB
330
C8
100
AcDbEntity
  8
\U+56FE\U+5C42 1
370
    35
  0
ENDBLK
  5
87
330
84
100
AcDbEntity
  8
0
100
AcDbBlockEnd
  0
BLOCK
  5
3A6
330
3A4
100
AcDbEntity
  8
0
100
AcDbBlockBegin
  2
block 3
 70
     0
 71
     0
 10
0.0
 20
0.0
 30
0.0
  3
block 3
  1

  0
MTEXT
  5
3A8
330
3A4
100
AcDbEntity
  8
\U+56FE\U+5C42 1
 62
     7
420
 16777215
100
AcDbMText
 10
307.3438584301085
 20
8.170388452818514
 30
0.0
 40
4.3179999989205
 41
0.0
 71
     7
 72
     1
  1
\fAdobe Song Std L|b0|i0|c0|p34;\W1;株式会社マキテック
 73
     1
 44
1.0
  0
INSERT
  5
3AA
330
3A4
100
AcDbEntity
  8
\U+56FE\U+5C42 1
100
AcDbBlockReference
  2
block 4
 10
0.0
 20
0.0
 30
0.0
  0
ENDBLK
  5
3A7
330
3A4
100
AcDbEntity
  8
0
100
AcDbBlockEnd
  0
BLOCK
  5
3AB
330
3A9
100
AcDbEntity
  8
0
100
AcDbBlockBegin
  2
block 4
 70
     0
 71
     0
 10
0.0
 20
0.0
 30
0.0
  3
block 4
  1

  0
INSERT
  5
3AE
330
3A9
100
AcDbEntity
  8
\U+56FE\U+5C42 1
100
AcDbBlockReference
  2
block 5
 10
0.0
 20
0.0
 30
0.0
  0
SPLINE
  5
3CC
330
3A9
100
AcDbEntity
  8
\U+56FE\U+5C42 1
 62
   250
420
  2299925
370
    70
100
AcDbSpline
210
0.0
220
0.0
230
1.0
 70
    11
 71
     3
 72
    17
 73
    13
 74
     0
 42
0.0000000001
 43
0.0000000001
 40
0.0
 40
0.0
 40
0.0
 40
0.0
 40
1.0
 40
1.0
 40
1.0
 40
2.0
 40
2.0
 40
2.0
 40
3.0
 40
3.0
 40
3.0
 40
4.0
 40
4.0
 40
4.0
 40
4.0
 10
305.882104415717
 20
10.43347167707913
 30
0.0
 10
305.882104415717
 20
8.819444442239584
 30
0.0
 10
302.9768553930058
 20
7.51134168649022
 30
0.0
 10
299.3932670692489
 20
7.51134168649022
 30
0.0
 10
295.809678745492
 20
7.51134168649022
 30
0.0
 10
292.9058077609749
 20
8.819444442239584
 30
0.0
 10
292.9058077609749
 20
10.43347167707913
 30
0.0
 10
292.9058077609749
 20
12.04853244056426
 30
0.0
 10
295.809678745492
 20
13.35663519631362
 30
0.0
 10
299.3932670692489
 20
13.35663519631362
 30
0.0
 10
302.9768553930058
 20
13.35663519631362
 30
0.0
 10
305.882104415717
 20
12.04853244056426
 30
0.0
 10
305.882104415717
 20
10.43347167707913
 30
0.0
  0
ENDBLK
  5
3AC
330
3A9
100
AcDbEntity
  8
0
100
AcDbBlockEnd
  0
BLOCK
  5
3AF
330
3AD
100
AcDbEntity
  8
0
100
AcDbBlockBegin
  2
block 5
 70
     0
 71
     0
 10
0.0
 20
0.0
 30
0.0
  3
block 5
  1

  0
INSERT
  5
3B2
330
3AD
100
AcDbEntity
  8
\U+56FE\U+5C42 1
100
AcDbBlockReference
  2
block 6
 10
0.0
 20
0.0
 30
0.0
  0
ENDBLK
  5
3B0
330
3AD
100
AcDbEntity
  8
0
100
AcDbBlockEnd
  0
BLOCK
  5
3B3
330
3B1
100
AcDbEntity
  8
0
100
AcDbBlockBegin
  2
block 6
 70
     0
 71
     0
 10
0.0
 20
0.0
 30
0.0
  3
block 6
  1

  0
SPLINE
  5
3B5
330
3B1
100
AcDbEntity
  8
\U+56FE\U+5C42 1
370
     0
100
AcDbSpline
210
0.0
220
0.0
230
1.0
 70
    11
 71
     3
 72
    59
 73
    55
 74
     0
 42
0.0000000001
 43
0.0000000001
 40
0.0
 40
0.0
 40
0.0
 40
0.0
 40
1.0
 40
1.0
 40
1.0
 40
2.0
 40
2.0
 40
2.0
 40
3.0
 40
3.0
 40
3.0
 40
4.0
 40
4.0
 40
4.0
 40
5.0
 40
5.0
 40
5.0
 40
6.0
 40
6.0
 40
6.0
 40
7.0
 40
7.0
 40
7.0
 40
8.0
 40
8.0
 40
8.0
 40
9.0
 40
9.0
 40
9.0
 40
10.0
 40
10.0
 40
10.0
 40
11.0
 40
11.0
 40
11.0
 40
12.0
 40
12.0
 40
12.0
 40
13.0
 40
13.0
 40
13.0
 40
14.0
 40
14.0
 40
14.0
 40
15.0
 40
15.0
 40
15.0
 40
16.0
 40
16.0
 40
16.0
 40
17.0
 40
17.0
 40
17.0
 40
18.0
 40
18.0
 40
18.0
 40
18.0
 10
295.8179469746566
 20
11.39878743204614
 30
0.0
 10
296.1986300257768
 20
11.39878743204614
 30
0.0
 10
296.4973198043479
 20
11.21654188087642
 30
0.0
 10
296.4973198043479
 20
11.21654188087642
 30
0.0
 10
296.8945393137972
 20
11.44874131658226
 30
0.0
 10
297.1584336279673
 20
11.38259548326546
 30
0.0
 10
297.1584336279673
 20
11.38259548326546
 30
0.0
 10
297.987668111267
 20
11.38259548326546
 30
0.0
 10
297.987668111267
 20
10.47136772741688
 30
0.0
 10
297.987668111267
 20
10.47136772741688
 30
0.0
 10
297.987668111267
 20
10.47136772741688
 30
0.0
 10
297.987668111267
 20
9.277642141777813
 30
0.0
 10
297.987668111267
 20
9.277642141777813
 30
0.0
 10
297.987668111267
 20
9.277642141777813
 30
0.0
 10
297.3575601470148
 20
9.277642141777813
 30
0.0
 10
297.3575601470148
 20
9.277642141777813
 30
0.0
 10
297.3575601470148
 20
9.277642141777813
 30
0.0
 10
297.3575601470148
 20
10.42106933333223
 30
0.0
 10
297.3575601470148
 20
10.42106933333223
 30
0.0
 10
297.3575601470148
 20
10.42106933333223
 30
0.0
 10
297.3417127077826
 20
10.6522352403925
 30
0.0
 10
297.0929768137476
 20
10.6522352403925
 30
0.0
 10
296.8456189579067
 20
10.6522352403925
 30
0.0
 10
296.7784395959443
 20
10.42106933333223
 30
0.0
 10
296.7784395959443
 20
10.42106933333223
 30
0.0
 10
296.7784395959443
 20
10.42106933333223
 30
0.0
 10
296.7784395959443
 20
9.294523109655536
 30
0.0
 10
296.7784395959443
 20
9.294523109655536
 30
0.0
 10
296.7784395959443
 20
9.294523109655536
 30
0.0
 10
296.181749057899
 20
9.294523109655536
 30
0.0
 10
296.181749057899
 20
9.294523109655536
 30
0.0
 10
296.181749057899
 20
9.294523109655536
 30
0.0
 10
296.181749057899
 20
10.43795030120996
 30
0.0
 10
296.181749057899
 20
10.43795030120996
 30
0.0
 10
296.181749057899
 20
10.43795030120996
 30
0.0
 10
296.1159477341308
 20
10.6522352403925
 30
0.0
 10
295.9175102341804
 20
10.66980522736727
 30
0.0
 10
295.7190727342299
 20
10.6853081570509
 30
0.0
 10
295.6357014234869
 20
10.43795030120996
 30
0.0
 10
295.6357014234869
 20
10.43795030120996
 30
0.0
 10
295.6357014234869
 20
10.43795030120996
 30
0.0
 10
295.6357014234869
 20
9.277642141777813
 30
0.0
 10
295.6357014234869
 20
9.277642141777813
 30
0.0
 10
295.6357014234869
 20
9.277642141777813
 30
0.0
 10
295.022818936661
 20
9.277642141777813
 30
0.0
 10
295.022818936661
 20
9.277642141777813
 30
0.0
 10
295.022818936661
 20
9.277642141777813
 30
0.0
 10
295.022818936661
 20
10.50375162497823
 30
0.0
 10
295.022818936661
 20
10.50375162497823
 30
0.0
 10
295.022818936661
 20
10.50375162497823
 30
0.0
 10
295.022818936661
 20
11.39878743204614
 30
0.0
 10
295.8179469746566
 20
11.39878743204614
 30
0.0
 10
295.8179469746566
 20
11.39878743204614
 30
0.0
 10
295.8179469746566
 20
11.39878743204614
 30
0.0
 10
295.8179469746566
 20
11.39878743204614
 30
0.0
  0
HATCH
  5
3B6
330
3B1
100
AcDbEntity
  8
\U+56FE\U+5C42 1
 62
   250
420
  2299925
100
AcDbHatch
 10
0.0
 20
0.0
 30
0.0
210
0.0
220
0.0
230
1.0
  2
SOLID
 70
     1
 71
     0
 91
        1
 92
        1
 93
        1
 72
     4
 94
        3
 73
     0
 74
     1
 95
       59
 96
       55
 40
0.0
 40
0.0
 40
0.0
 40
0.0
 40
1.0
 40
1.0
 40
1.0
 40
2.0
 40
2.0
 40
2.0
 40
3.0
 40
3.0
 40
3.0
 40
4.0
 40
4.0
 40
4.0
 40
5.0
 40
5.0
 40
5.0
 40
6.0
 40
6.0
 40
6.0
 40
7.0
 40
7.0
 40
7.0
 40
8.0
 40
8.0
 40
8.0
 40
9.0
 40
9.0
 40
9.0
 40
10.0
 40
10.0
 40
10.0
 40
11.0
 40
11.0
 40
11.0
 40
12.0
 40
12.0
 40
12.0
 40
13.0
 40
13.0
 40
13.0
 40
14.0
 40
14.0
 40
14.0
 40
15.0
 40
15.0
 40
15.0
 40
16.0
 40
16.0
 40
16.0
 40
17.0
 40
17.0
 40
17.0
 40
18.0
 40
18.0
 40
18.0
 40
18.0
 10
295.8179469746566
 20
11.39878743204614
 10
296.1986300257768
 20
11.39878743204614
 10
296.4973198043479
 20
11.21654188087642
 10
296.4973198043479
 20
11.21654188087642
 10
296.8945393137972
 20
11.44874131658226
 10
297.1584336279673
 20
11.38259548326546
 10
297.1584336279673
 20
11.38259548326546
 10
297.987668111267
 20
11.38259548326546
 10
297.987668111267
 20
10.47136772741688
 10
297.987668111267
 20
10.47136772741688
 10
297.987668111267
 20
10.47136772741688
 10
297.987668111267
 20
9.277642141777813
 10
297.987668111267
 20
9.277642141777813
 10
297.987668111267
 20
9.277642141777813
 10
297.3575601470148
 20
9.277642141777813
 10
297.3575601470148
 20
9.277642141777813
 10
297.3575601470148
 20
9.277642141777813
 10
297.3575601470148
 20
10.42106933333223
 10
297.3575601470148
 20
10.42106933333223
 10
297.3575601470148
 20
10.42106933333223
 10
297.3417127077826
 20
10.6522352403925
 10
297.0929768137476
 20
10.6522352403925
 10
296.8456189579067
 20
10.6522352403925
 10
296.7784395959443
 20
10.42106933333223
 10
296.7784395959443
 20
10.42106933333223
 10
296.7784395959443
 20
10.42106933333223
 10
296.7784395959443
 20
9.294523109655536
 10
296.7784395959443
 20
9.294523109655536
 10
296.7784395959443
 20
9.294523109655536
 10
296.181749057899
 20
9.294523109655536
 10
296.181749057899
 20
9.294523109655536
 10
296.181749057899
 20
9.294523109655536
 10
296.181749057899
 20
10.43795030120996
 10
296.181749057899
 20
10.43795030120996
 10
296.181749057899
 20
10.43795030120996
 10
296.1159477341308
 20
10.6522352403925
 10
295.9175102341804
 20
10.66980522736727
 10
295.7190727342299
 20
10.6853081570509
 10
295.6357014234869
 20
10.43795030120996
 10
295.6357014234869
 20
10.43795030120996
 10
295.6357014234869
 20
10.43795030120996
 10
295.6357014234869
 20
9.277642141777813
 10
295.6357014234869
 20
9.277642141777813
 10
295.6357014234869
 20
9.277642141777813
 10
295.022818936661
 20
9.277642141777813
 10
295.022818936661
 20
9.277642141777813
 10
295.022818936661
 20
9.277642141777813
 10
295.022818936661
 20
10.50375162497823
 10
295.022818936661
 20
10.50375162497823
 10
295.022818936661
 20
10.50375162497823
 10
295.022818936661
 20
11.39878743204614
 10
295.8179469746566
 20
11.39878743204614
 10
295.8179469746566
 20
11.39878743204614
 10
295.8179469746566
 20
11.39878743204614
 10
295.8179469746566
 20
11.39878743204614
 97
        0
 75
     2
 76
     1
 98
        0
  0
SPLINE
  5
3B7
330
3B1
100
AcDbEntity
  8
\U+56FE\U+5C42 1
370
     0
100
AcDbSpline
210
0.0
220
0.0
230
1.0
 70
    11
 71
     3
 72
    35
 73
    31
 74
     0
 42
0.0000000001
 43
0.0000000001
 40
0.0
 40
0.0
 40
0.0
 40
0.0
 40
1.0
 40
1.0
 40
1.0
 40
2.0
 40
2.0
 40
2.0
 40
3.0
 40
3.0
 40
3.0
 40
4.0
 40
4.0
 40
4.0
 40
5.0
 40
5.0
 40
5.0
 40
6.0
 40
6.0
 40
6.0
 40
7.0
 40
7.0
 40
7.0
 40
8.0
 40
8.0
 40
8.0
 40
9.0
 40
9.0
 40
9.0
 40
10.0
 40
10.0
 40
10.0
 40
10.0
 10
298.3500921563153
 20
9.261794702545663
 30
0.0
 10
298.3500921563153
 20
9.261794702545663
 30
0.0
 10
298.9478162230061
 20
9.261794702545663
 30
0.0
 10
298.9478162230061
 20
9.261794702545663
 30
0.0
 10
298.9478162230061
 20
9.261794702545663
 30
0.0
 10
298.9478162230061
 20
9.476768660825252
 30
0.0
 10
298.9478162230061
 20
9.476768660825252
 30
0.0
 10
298.9478162230061
 20
9.476768660825252
 30
0.0
 10
299.7088378156978
 20
9.476768660825252
 30
0.0
 10
299.7088378156978
 20
9.476768660825252
 30
0.0
 10
299.7088378156978
 20
9.476768660825252
 30
0.0
 10
299.7088378156978
 20
9.277642141777813
 30
0.0
 10
299.7088378156978
 20
9.277642141777813
 30
0.0
 10
299.7088378156978
 20
9.277642141777813
 30
0.0
 10
300.3224093216208
 20
9.277642141777813
 30
0.0
 10
300.3224093216208
 20
9.277642141777813
 30
0.0
 10
300.3224093216208
 20
9.277642141777813
 30
0.0
 10
300.3224093216208
 20
10.45448675953916
 30
0.0
 10
300.3224093216208
 20
10.45448675953916
 30
0.0
 10
300.3224093216208
 20
10.45448675953916
 30
0.0
 10
300.2063096037679
 20
11.38259548326546
 30
0.0
 10
299.2943928288223
 20
11.38259548326546
 30
0.0
 10
298.3845431111678
 20
11.38259548326546
 30
0.0
 10
298.3500921563153
 20
10.47136772741688
 30
0.0
 10
298.3500921563153
 20
10.47136772741688
 30
0.0
 10
298.3500921563153
 20
10.47136772741688
 30
0.0
 10
298.3500921563153
 20
9.261794702545663
 30
0.0
 10
298.3500921563153
 20
9.261794702545663
 30
0.0
 10
298.3500921563153
 20
9.261794702545663
 30
0.0
 10
298.3500921563153
 20
9.261794702545663
 30
0.0
 10
298.3500921563153
 20
9.261794702545663
 30
0.0
  0
HATCH
  5
3B8
330
3B1
100
AcDbEntity
  8
\U+56FE\U+5C42 1
 62
   250
420
  2299925
100
AcDbHatch
 10
0.0
 20
0.0
 30
0.0
210
0.0
220
0.0
230
1.0
  2
SOLID
 70
     1
 71
     0
 91
        1
 92
        1
 93
        1
 72
     4
 94
        3
 73
     0
 74
     1
 95
       35
 96
       31
 40
0.0
 40
0.0
 40
0.0
 40
0.0
 40
1.0
 40
1.0
 40
1.0
 40
2.0
 40
2.0
 40
2.0
 40
3.0
 40
3.0
 40
3.0
 40
4.0
 40
4.0
 40
4.0
 40
5.0
 40
5.0
 40
5.0
 40
6.0
 40
6.0
 40
6.0
 40
7.0
 40
7.0
 40
7.0
 40
8.0
 40
8.0
 40
8.0
 40
9.0
 40
9.0
 40
9.0
 40
10.0
 40
10.0
 40
10.0
 40
10.0
 10
298.3500921563153
 20
9.261794702545663
 10
298.3500921563153
 20
9.261794702545663
 10
298.9478162230061
 20
9.261794702545663
 10
298.9478162230061
 20
9.261794702545663
 10
298.9478162230061
 20
9.261794702545663
 10
298.9478162230061
 20
9.476768660825252
 10
298.9478162230061
 20
9.476768660825252
 10
298.9478162230061
 20
9.476768660825252
 10
299.7088378156978
 20
9.476768660825252
 10
299.7088378156978
 20
9.476768660825252
 10
299.7088378156978
 20
9.476768660825252
 10
299.7088378156978
 20
9.277642141777813
 10
299.7088378156978
 20
9.277642141777813
 10
299.7088378156978
 20
9.277642141777813
 10
300.3224093216208
 20
9.277642141777813
 10
300.3224093216208
 20
9.277642141777813
 10
300.3224093216208
 20
9.277642141777813
 10
300.3224093216208
 20
10.45448675953916
 10
300.3224093216208
 20
10.45448675953916
 10
300.3224093216208
 20
10.45448675953916
 10
300.2063096037679
 20
11.38259548326546
 10
299.2943928288223
 20
11.38259548326546
 10
298.3845431111678
 20
11.38259548326546
 10
298.3500921563153
 20
10.47136772741688
 10
298.3500921563153
 20
10.47136772741688
 10
298.3500921563153
 20
10.47136772741688
 10
298.3500921563153
 20
9.261794702545663
 10
298.3500921563153
 20
9.261794702545663
 10
298.3500921563153
 20
9.261794702545663
 10
298.3500921563153
 20
9.261794702545663
 10
298.3500921563153
 20
9.261794702545663
 97
        0
 75
     2
 76
     1
 98
        0
  0
SPLINE
  5
3B9
330
3B1
100
AcDbEntity
  8
\U+56FE\U+5C42 1
370
     0
100
AcDbSpline
210
0.0
220
0.0
230
1.0
 70
    11
 71
     3
 72
    41
 73
    37
 74
     0
 42
0.0000000001
 43
0.0000000001
 40
0.0
 40
0.0
 40
0.0
 40
0.0
 40
1.0
 40
1.0
 40
1.0
 40
2.0
 40
2.0
 40
2.0
 40
3.0
 40
3.0
 40
3.0
 40
4.0
 40
4.0
 40
4.0
 40
5.0
 40
5.0
 40
5.0
 40
6.0
 40
6.0
 40
6.0
 40
7.0
 40
7.0
 40
7.0
 40
8.0
 40
8.0
 40
8.0
 40
9.0
 40
9.0
 40
9.0
 40
10.0
 40
10.0
 40
10.0
 40
11.0
 40
11.0
 40
11.0
 40
12.0
 40
12.0
 40
12.0
 40
12.0
 10
300.7196288310701
 20
9.261794702545663
 30
0.0
 10
300.7196288310701
 20
9.261794702545663
 30
0.0
 10
301.3149413309213
 20
9.261794702545663
 30
0.0
 10
301.3149413309213
 20
9.261794702545663
 30
0.0
 10
301.3149413309213
 20
9.261794702545663
 30
0.0
 10
301.3149413309213
 20
9.87398817027456
 30
0.0
 10
301.3149413309213
 20
9.87398817027456
 30
0.0
 10
301.3149413309213
 20
9.87398817027456
 30
0.0
 10
301.9946586701611
 20
9.95839300966318
 30
0.0
 10
302.0773409618071
 20
9.24491373466794
 30
0.0
 10
302.0773409618071
 20
9.24491373466794
 30
0.0
 10
302.7222628366458
 20
9.228032766790214
 30
0.0
 10
302.7222628366458
 20
9.228032766790214
 30
0.0
 10
302.7222628366458
 20
9.228032766790214
 30
0.0
 10
302.6891899199874
 20
9.940478513139881
 30
0.0
 10
302.0601154843808
 20
10.23916829171104
 30
0.0
 10
302.0601154843808
 20
10.23916829171104
 30
0.0
 10
302.7222628366458
 20
10.60331488450195
 30
0.0
 10
302.7222628366458
 20
11.36502549629069
 30
0.0
 10
302.7222628366458
 20
11.36502549629069
 30
0.0
 10
302.1104138784655
 20
11.36502549629069
 30
0.0
 10
302.1104138784655
 20
11.36502549629069
 30
0.0
 10
302.1104138784655
 20
11.36502549629069
 30
0.0
 10
302.0266980581739
 20
10.6522352403925
 30
0.0
 10
301.3314777892505
 20
10.6522352403925
 30
0.0
 10
301.3314777892505
 20
10.6522352403925
 30
0.0
 10
301.3314777892505
 20
11.36502549629069
 30
0.0
 10
301.3314777892505
 20
11.36502549629069
 30
0.0
 10
301.3314777892505
 20
11.36502549629069
 30
0.0
 10
300.7196288310701
 20
11.36502549629069
 30
0.0
 10
300.7196288310701
 20
11.36502549629069
 30
0.0
 10
300.7196288310701
 20
11.36502549629069
 30
0.0
 10
300.7196288310701
 20
9.261794702545663
 30
0.0
 10
300.7196288310701
 20
9.261794702545663
 30
0.0
 10
300.7196288310701
 20
9.261794702545663
 30
0.0
 10
300.7196288310701
 20
9.261794702545663
 30
0.0
 10
300.7196288310701
 20
9.261794702545663
 30
0.0
  0
HATCH
  5
3BA
330
3B1
100
AcDbEntity
  8
\U+56FE\U+5C42 1
 62
   250
420
  2299925
100
AcDbHatch
 10
0.0
 20
0.0
 30
0.0
210
0.0
220
0.0
230
1.0
  2
SOLID
 70
     1
 71
     0
 91
        1
 92
        1
 93
        1
 72
     4
 94
        3
 73
     0
 74
     1
 95
       41
 96
       37
 40
0.0
 40
0.0
 40
0.0
 40
0.0
 40
1.0
 40
1.0
 40
1.0
 40
2.0
 40
2.0
 40
2.0
 40
3.0
 40
3.0
 40
3.0
 40
4.0
 40
4.0
 40
4.0
 40
5.0
 40
5.0
 40
5.0
 40
6.0
 40
6.0
 40
6.0
 40
7.0
 40
7.0
 40
7.0
 40
8.0
 40
8.0
 40
8.0
 40
9.0
 40
9.0
 40
9.0
 40
10.0
 40
10.0
 40
10.0
 40
11.0
 40
11.0
 40
11.0
 40
12.0
 40
12.0
 40
12.0
 40
12.0
 10
300.7196288310701
 20
9.261794702545663
 10
300.7196288310701
 20
9.261794702545663
 10
301.3149413309213
 20
9.261794702545663
 10
301.3149413309213
 20
9.261794702545663
 10
301.3149413309213
 20
9.261794702545663
 10
301.3149413309213
 20
9.87398817027456
 10
301.3149413309213
 20
9.87398817027456
 10
301.3149413309213
 20
9.87398817027456
 10
301.9946586701611
 20
9.95839300966318
 10
302.0773409618071
 20
9.24491373466794
 10
302.0773409618071
 20
9.24491373466794
 10
302.7222628366458
 20
9.228032766790214
 10
302.7222628366458
 20
9.228032766790214
 10
302.7222628366458
 20
9.228032766790214
 10
302.6891899199874
 20
9.940478513139881
 10
302.0601154843808
 20
10.23916829171104
 10
302.0601154843808
 20
10.23916829171104
 10
302.7222628366458
 20
10.60331488450195
 10
302.7222628366458
 20
11.36502549629069
 10
302.7222628366458
 20
11.36502549629069
 10
302.1104138784655
 20
11.36502549629069
 10
302.1104138784655
 20
11.36502549629069
 10
302.1104138784655
 20
11.36502549629069
 10
302.0266980581739
 20
10.6522352403925
 10
301.3314777892505
 20
10.6522352403925
 10
301.3314777892505
 20
10.6522352403925
 10
301.3314777892505
 20
11.36502549629069
 10
301.3314777892505
 20
11.36502549629069
 10
301.3314777892505
 20
11.36502549629069
 10
300.7196288310701
 20
11.36502549629069
 10
300.7196288310701
 20
11.36502549629069
 10
300.7196288310701
 20
11.36502549629069
 10
300.7196288310701
 20
9.261794702545663
 10
300.7196288310701
 20
9.261794702545663
 10
300.7196288310701
 20
9.261794702545663
 10
300.7196288310701
 20
9.261794702545663
 10
300.7196288310701
 20
9.261794702545663
 97
        0
 75
     2
 76
     1
 98
        0
  0
POLYLINE
  5
3BB
330
3B1
100
AcDbEntity
  8
\U+56FE\U+5C42 1
370
     0
100
AcDb2dPolyline
 66
     1
 10
0.0
 20
0.0
 30
0.0
  0
VERTEX
  5
3BC
330
3BB
100
AcDbEntity
  8
\U+56FE\U+5C42 1
370
     0
100
AcDbVertex
100
AcDb2dVertex
 10
303.1367078235214
 20
11.36502549629069
 30
0.0
  0
VERTEX
  5
3BD
330
3BB
100
AcDbEntity
  8
\U+56FE\U+5C42 1
370
     0
100
AcDbVertex
100
AcDb2dVertex
 10
303.7492458007988
 20
11.36502549629069
 30
0.0
  0
VERTEX
  5
3BE
330
3BB
100
AcDbEntity
  8
\U+56FE\U+5C42 1
370
     0
100
AcDbVertex
100
AcDb2dVertex
 10
303.7492458007988
 20
9.24491373466794
 30
0.0
  0
VERTEX
  5
3BF
330
3BB
100
AcDbEntity
  8
\U+56FE\U+5C42 1
370
     0
100
AcDbVertex
100
AcDb2dVertex
 10
303.1367078235214
 20
9.24491373466794
 30
0.0
  0
VERTEX
  5
3C0
330
3BB
100
AcDbEntity
  8
\U+56FE\U+5C42 1
370
     0
100
AcDbVertex
100
AcDb2dVertex
 10
303.1367078235214
 20
11.36502549629069
 30
0.0
  0
VERTEX
  5
3C1
330
3BB
100
AcDbEntity
  8
\U+56FE\U+5C42 1
370
     0
100
AcDbVertex
100
AcDb2dVertex
 10
303.1367078235214
 20
11.36502549629069
 30
0.0
  0
SEQEND
  5
3C2
330
3BB
100
AcDbEntity
  8
\U+56FE\U+5C42 1
370
     0
  0
HATCH
  5
3C3
330
3B1
100
AcDbEntity
  8
\U+56FE\U+5C42 1
 62
   250
420
  2299925
100
AcDbHatch
 10
0.0
 20
0.0
 30
0.0
210
0.0
220
0.0
230
1.0
  2
SOLID
 70
     1
 71
     0
 91
        1
 92
        1
 93
        4
 72
     1
 10
303.1367078235214
 20
11.36502549629069
 11
303.7492458007988
 21
11.36502549629069
 72
     1
 10
303.7492458007988
 20
11.36502549629069
 11
303.7492458007988
 21
9.24491373466794
 72
     1
 10
303.7492458007988
 20
9.24491373466794
 11
303.1367078235214
 21
9.24491373466794
 72
     1
 10
303.1367078235214
 20
9.24491373466794
 11
303.1367078235214
 21
11.36502549629069
 97
        0
 75
     2
 76
     1
 98
        0
  0
SPLINE
  5
3C4
330
3B1
100
AcDbEntity
  8
\U+56FE\U+5C42 1
370
     0
100
AcDbSpline
210
0.0
220
0.0
230
1.0
 70
    11
 71
     3
 72
    17
 73
    13
 74
     0
 42
0.0000000001
 43
0.0000000001
 40
0.0
 40
0.0
 40
0.0
 40
0.0
 40
1.0
 40
1.0
 40
1.0
 40
2.0
 40
2.0
 40
2.0
 40
3.0
 40
3.0
 40
3.0
 40
4.0
 40
4.0
 40
4.0
 40
4.0
 10
298.9640081717868
 20
10.0414198108577
 30
0.0
 10
298.9640081717868
 20
10.0414198108577
 30
0.0
 10
299.6929903764657
 20
10.0414198108577
 30
0.0
 10
299.6929903764657
 20
10.0414198108577
 30
0.0
 10
299.6929903764657
 20
10.0414198108577
 30
0.0
 10
299.8580104502091
 20
10.6522352403925
 30
0.0
 10
299.3291882932233
 20
10.6522352403925
 30
0.0
 10
298.7993326075919
 20
10.6522352403925
 30
0.0
 10
298.9640081717868
 20
10.0414198108577
 30
0.0
 10
298.9640081717868
 20
10.0414198108577
 30
0.0
 10
298.9640081717868
 20
10.0414198108577
 30
0.0
 10
298.9640081717868
 20
10.0414198108577
 30
0.0
 10
298.9640081717868
 20
10.0414198108577
 30
0.0
  0
POLYLINE
  5
3C5
330
3B1
100
AcDbEntity
  8
\U+56FE\U+5C42 1
370
     0
100
AcDb2dPolyline
 66
     1
 10
0.0
 20
0.0
 30
0.0
  0
VERTEX
  5
3C6
330
3C5
100
AcDbEntity
  8
\U+56FE\U+5C42 1
370
     0
100
AcDbVertex
100
AcDb2dVertex
 10
292.8909938503884
 20
7.355623370556928
 30
0.0
  0
VERTEX
  5
3C7
330
3C5
100
AcDbEntity
  8
\U+56FE\U+5C42 1
370
     0
100
AcDbVertex
100
AcDb2dVertex
 10
292.8909938503884
 20
13.2253770583256
 30
0.0
  0
VERTEX
  5
3C8
330
3C5
100
AcDbEntity
  8
\U+56FE\U+5C42 1
370
     0
100
AcDbVertex
100
AcDb2dVertex
 10
305.8531656136409
 20
13.2253770583256
 30
0.0
  0
VERTEX
  5
3C9
330
3C5
100
AcDbEntity
  8
\U+56FE\U+5C42 1
370
     0
100
AcDbVertex
100
AcDb2dVertex
 10
305.8531656136409
 20
7.355623370556928
 30
0.0
  0
VERTEX
  5
3CA
330
3C5
100
AcDbEntity
  8
\U+56FE\U+5C42 1
370
     0
100
AcDbVertex
100
AcDb2dVertex
 10
292.8909938503884
 20
7.355623370556928
 30
0.0
  0
SEQEND
  5
3CB
330
3C5
100
AcDbEntity
  8
\U+56FE\U+5C42 1
370
     0
  0
ENDBLK
  5
3B4
330
3B1
100
AcDbEntity
  8
0
100
AcDbBlockEnd
  0
BLOCK
  5
41C
330
41A
100
AcDbEntity
  8
0
100
AcDbBlockBegin
  2
block 7
 70
     0
 71
     0
 10
0.0
 20
0.0
 30
0.0
  3
block 7
  1

  0
POLYLINE
  5
41E
330
41A
100
AcDbEntity
  8
\U+56FE\U+5C42 1
370
     0
100
AcDb2dPolyline
 66
     1
 10
0.0
 20
0.0
 30
0.0
  0
VERTEX
  5
41F
330
41E
100
AcDbEntity
  8
\U+56FE\U+5C42 1
370
     0
100
AcDbVertex
100
AcDb2dVertex
 10
305.7115721891971
 20
126.944189421389
 30
0.0
  0
VERTEX
  5
420
330
41E
100
AcDbEntity
  8
\U+56FE\U+5C42 1
370
     0
100
AcDbVertex
100
AcDb2dVertex
 10
304.66219610439
 20
123.5679958458441
 30
0.0
  0
VERTEX
  5
421
330
41E
100
AcDbEntity
  8
\U+56FE\U+5C42 1
370
     0
100
AcDbVertex
100
AcDb2dVertex
 10
303.7582030490605
 20
123.9972547433062
 30
0.0
  0
VERTEX
  5
422
330
41E
100
AcDbEntity
  8
\U+56FE\U+5C42 1
370
     0
100
AcDbVertex
100
AcDb2dVertex
 10
305.7115721891971
 20
126.944189421389
 30
0.0
  0
SEQEND
  5
423
330
41E
100
AcDbEntity
  8
\U+56FE\U+5C42 1
370
     0
  0
HATCH
  5
424
330
41A
100
AcDbEntity
  8
\U+56FE\U+5C42 1
 62
     7
420
 16777215
100
AcDbHatch
 10
0.0
 20
0.0
 30
0.0
210
0.0
220
0.0
230
1.0
  2
SOLID
 70
     1
 71
     0
 91
        1
 92
        1
 93
        3
 72
     1
 10
305.7115721891971
 20
126.944189421389
 11
304.66219610439
 21
123.5679958458441
 72
     1
 10
304.66219610439
 20
123.5679958458441
 11
303.7582030490605
 21
123.9972547433062
 72
     1
 10
303.7582030490605
 20
123.9972547433062
 11
305.7115721891971
 21
126.944189421389
 97
        0
 75
     2
 76
     1
 98
        0
  0
POLYLINE
  5
425
330
41A
100
AcDbEntity
  8
\U+56FE\U+5C42 1
 62
     7
420
 16777215
370
    13
100
AcDb2dPolyline
 66
     1
 10
0.0
 20
0.0
 30
0.0
  0
VERTEX
  5
426
330
425
100
AcDbEntity
  8
\U+56FE\U+5C42 1
 62
     7
420
 16777215
370
    13
100
AcDbVertex
100
AcDb2dVertex
 10
305.7115721891971
 20
126.944189421389
 30
0.0
  0
VERTEX
  5
427
330
425
100
AcDbEntity
  8
\U+56FE\U+5C42 1
 62
     7
420
 16777215
370
    13
100
AcDbVertex
100
AcDb2dVertex
 10
304.66219610439
 20
123.5679958458441
 30
0.0
  0
VERTEX
  5
428
330
425
100
AcDbEntity
  8
\U+56FE\U+5C42 1
 62
     7
420
 16777215
370
    13
100
AcDbVertex
100
AcDb2dVertex
 10
303.7582030490605
 20
123.9972547433062
 30
0.0
  0
VERTEX
  5
429
330
425
100
AcDbEntity
  8
\U+56FE\U+5C42 1
 62
     7
420
 16777215
370
    13
100
AcDbVertex
100
AcDb2dVertex
 10
305.7115721891971
 20
126.944189421389
 30
0.0
  0
SEQEND
  5
42A
330
425
100
AcDbEntity
  8
\U+56FE\U+5C42 1
370
    13
  0
SPLINE
  5
42B
330
41A
100
AcDbEntity
  8
\U+56FE\U+5C42 1
370
     0
100
AcDbSpline
210
0.0
220
0.0
230
1.0
 70
    11
 71
     3
 72
    47
 73
    43
 74
     0
 42
0.0000000001
 43
0.0000000001
 40
0.0
 40
0.0
 40
0.0
 40
0.0
 40
1.0
 40
1.0
 40
1.0
 40
2.0
 40
2.0
 40
2.0
 40
3.0
 40
3.0
 40
3.0
 40
4.0
 40
4.0
 40
4.0
 40
5.0
 40
5.0
 40
5.0
 40
6.0
 40
6.0
 40
6.0
 40
7.0
 40
7.0
 40
7.0
 40
8.0
 40
8.0
 40
8.0
 40
9.0
 40
9.0
 40
9.0
 40
10.0
 40
10.0
 40
10.0
 40
11.0
 40
11.0
 40
11.0
 40
12.0
 40
12.0
 40
12.0
 40
13.0
 40
13.0
 40
13.0
 40
14.0
 40
14.0
 40
14.0
 40
14.0
 10
298.0276312188959
 20
107.2034477813589
 30
0.0
 10
298.0276312188959
 20
107.2034477813589
 30
0.0
 10
296.6268553945933
 20
107.2034477813589
 30
0.0
 10
296.6268553945933
 20
107.2034477813589
 30
0.0
 10
296.6723306549986
 20
107.3126573082413
 30
0.0
 10
296.8811034414047
 20
107.653721761281
 30
0.0
 10
296.9451822174304
 20
107.7450167916401
 30
0.0
 10
297.395111687804
 20
108.3816704373143
 30
0.0
 10
297.6500487537125
 20
109.004888210596
 30
0.0
 10
297.7134385106411
 20
109.2643039006353
 30
0.0
 10
297.822992547072
 20
109.7235351288191
 30
0.0
 10
297.6362683717715
 20
110.1372910965976
 30
0.0
 10
297.3179415489344
 20
110.1372910965976
 30
0.0
 10
297.0995224951696
 20
110.1372910965976
 30
0.0
 10
296.954139465692
 20
109.9643473032381
 30
0.0
 10
296.8039333025351
 20
109.6188042260675
 30
0.0
 10
296.8039333025351
 20
109.6188042260675
 30
0.0
 10
296.7219400299862
 20
109.6646239960213
 30
0.0
 10
296.7219400299862
 20
109.6646239960213
 30
0.0
 10
296.8769693268225
 20
110.114553466395
 30
0.0
 10
297.0588703684436
 20
110.3377956538392
 30
0.0
 10
297.3909775732217
 20
110.3377956538392
 30
0.0
 10
297.7458224082025
 20
110.3377956538392
 30
0.0
 10
298.0048935886932
 20
109.9602131886558
 30
0.0
 10
298.0048935886932
 20
109.6005452199957
 30
0.0
 10
298.0048935886932
 20
109.2322645126225
 30
0.0
 10
297.8595105592157
 20
108.8591606715699
 30
0.0
 10
297.3592826947574
 20
108.149815511157
 30
0.0
 10
297.1587781375159
 20
107.8631835667842
 30
0.0
 10
297.008571974359
 20
107.6358072647577
 30
0.0
 10
296.9086642052868
 20
107.467342095529
 30
0.0
 10
296.9086642052868
 20
107.467342095529
 30
0.0
 10
297.7499565227848
 20
107.467342095529
 30
0.0
 10
297.7499565227848
 20
107.467342095529
 30
0.0
 10
297.8595105592157
 20
107.467342095529
 30
0.0
 10
297.931857564406
 20
107.5627712404704
 30
0.0
 10
297.9731987102289
 20
107.9041802030587
 30
0.0
 10
297.9731987102289
 20
107.9041802030587
 30
0.0
 10
298.0641492310396
 20
107.9041802030587
 30
0.0
 10
298.0641492310396
 20
107.9041802030587
 30
0.0
 10
298.0641492310396
 20
107.9041802030587
 30
0.0
 10
298.0276312188959
 20
107.2034477813589
 30
0.0
 10
298.0276312188959
 20
107.2034477813589
 30
0.0
  0
HATCH
  5
42C
330
41A
100
AcDbEntity
  8
\U+56FE\U+5C42 1
 62
     7
420
 16777215
100
AcDbHatch
 10
0.0
 20
0.0
 30
0.0
210
0.0
220
0.0
230
1.0
  2
SOLID
 70
     1
 71
     0
 91
        1
 92
        1
 93
        1
 72
     4
 94
        3
 73
     0
 74
     1
 95
       47
 96
       43
 40
0.0
 40
0.0
 40
0.0
 40
0.0
 40
1.0
 40
1.0
 40
1.0
 40
2.0
 40
2.0
 40
2.0
 40
3.0
 40
3.0
 40
3.0
 40
4.0
 40
4.0
 40
4.0
 40
5.0
 40
5.0
 40
5.0
 40
6.0
 40
6.0
 40
6.0
 40
7.0
 40
7.0
 40
7.0
 40
8.0
 40
8.0
 40
8.0
 40
9.0
 40
9.0
 40
9.0
 40
10.0
 40
10.0
 40
10.0
 40
11.0
 40
11.0
 40
11.0
 40
12.0
 40
12.0
 40
12.0
 40
13.0
 40
13.0
 40
13.0
 40
14.0
 40
14.0
 40
14.0
 40
14.0
 10
298.0276312188959
 20
107.2034477813589
 10
298.0276312188959
 20
107.2034477813589
 10
296.6268553945933
 20
107.2034477813589
 10
296.6268553945933
 20
107.2034477813589
 10
296.6723306549986
 20
107.3126573082413
 10
296.8811034414047
 20
107.653721761281
 10
296.9451822174304
 20
107.7450167916401
 10
297.395111687804
 20
108.3816704373143
 10
297.6500487537125
 20
109.004888210596
 10
297.7134385106411
 20
109.2643039006353
 10
297.822992547072
 20
109.7235351288191
 10
297.6362683717715
 20
110.1372910965976
 10
297.3179415489344
 20
110.1372910965976
 10
297.0995224951696
 20
110.1372910965976
 10
296.954139465692
 20
109.9643473032381
 10
296.8039333025351
 20
109.6188042260675
 10
296.8039333025351
 20
109.6188042260675
 10
296.7219400299862
 20
109.6646239960213
 10
296.7219400299862
 20
109.6646239960213
 10
296.8769693268225
 20
110.114553466395
 10
297.0588703684436
 20
110.3377956538392
 10
297.3909775732217
 20
110.3377956538392
 10
297.7458224082025
 20
110.3377956538392
 10
298.0048935886932
 20
109.9602131886558
 10
298.0048935886932
 20
109.6005452199957
 10
298.0048935886932
 20
109.2322645126225
 10
297.8595105592157
 20
108.8591606715699
 10
297.3592826947574
 20
108.149815511157
 10
297.1587781375159
 20
107.8631835667842
 10
297.008571974359
 20
107.6358072647577
 10
296.9086642052868
 20
107.467342095529
 10
296.9086642052868
 20
107.467342095529
 10
297.7499565227848
 20
107.467342095529
 10
297.7499565227848
 20
107.467342095529
 10
297.8595105592157
 20
107.467342095529
 10
297.931857564406
 20
107.5627712404704
 10
297.9731987102289
 20
107.9041802030587
 10
297.9731987102289
 20
107.9041802030587
 10
298.0641492310396
 20
107.9041802030587
 10
298.0641492310396
 20
107.9041802030587
 10
298.0641492310396
 20
107.9041802030587
 10
298.0276312188959
 20
107.2034477813589
 10
298.0276312188959
 20
107.2034477813589
 97
        0
 75
     2
 76
     1
 98
        0
  0
POLYLINE
  5
42D
330
41A
100
AcDbEntity
  8
\U+56FE\U+5C42 1
 62
     7
420
 16777215
370
    13
100
AcDb2dPolyline
 66
     1
 10
0.0
 20
0.0
 30
0.0
  0
VERTEX
  5
42E
330
42D
100
AcDbEntity
  8
\U+56FE\U+5C42 1
 62
     7
420
 16777215
370
    13
100
AcDbVertex
100
AcDb2dVertex
 10
305.6798773107328
 20
126.9638264656549
 30
0.0
  0
VERTEX
  5
42F
330
42D
100
AcDbEntity
  8
\U+56FE\U+5C42 1
 62
     7
420
 16777215
370
    13
100
AcDbVertex
100
AcDb2dVertex
 10
298.9350693697107
 20
112.589854572547
 30
0.0
  0
SEQEND
  5
430
330
42D
100
AcDbEntity
  8
\U+56FE\U+5C42 1
370
    13
  0
SPLINE
  5
431
330
41A
100
AcDbEntity
  8
\U+56FE\U+5C42 1
 62
     7
420
 16777215
370
    13
100
AcDbSpline
210
0.0
220
0.0
230
1.0
 70
    11
 71
     3
 72
    17
 73
    13
 74
     0
 42
0.0000000001
 43
0.0000000001
 40
0.0
 40
0.0
 40
0.0
 40
0.0
 40
1.0
 40
1.0
 40
1.0
 40
2.0
 40
2.0
 40
2.0
 40
3.0
 40
3.0
 40
3.0
 40
4.0
 40
4.0
 40
4.0
 40
4.0
 10
299.4973089529034
 20
112.197458196777
 30
0.0
 10
297.6045734933072
 20
113.3863606487368
 30
0.0
 10
295.1075682855981
 20
112.8155083268309
 30
0.0
 10
293.9183213240899
 20
110.9231173767831
 30
0.0
 10
292.7297633816787
 20
109.0303819171869
 30
0.0
 10
293.300271194036
 20
106.5326876903807
 30
0.0
 10
295.1930066536323
 20
105.343785238421
 30
0.0
 10
297.0850530941315
 20
104.1552272960098
 30
0.0
 10
299.5834363400347
 20
104.7257351083672
 30
0.0
 10
300.7719942824459
 20
106.6184705679634
 30
0.0
 10
301.9605522248571
 20
108.5108615180112
 30
0.0
 10
301.3900444124997
 20
111.0089002543658
 30
0.0
 10
299.4973089529034
 20
112.197458196777
 30
0.0
  0
ENDBLK
  5
41D
330
41A
100
AcDbEntity
  8
0
100
AcDbBlockEnd
  0
BLOCK
  5
434
330
432
100
AcDbEntity
  8
0
100
AcDbBlockBegin
  2
block 8
 70
     0
 71
     0
 10
0.0
 20
0.0
 30
0.0
  3
block 8
  1

  0
POLYLINE
  5
436
330
432
100
AcDbEntity
  8
\U+56FE\U+5C42 1
370
     0
100
AcDb2dPolyline
 66
     1
 10
0.0
 20
0.0
 30
0.0
  0
VERTEX
  5
437
330
436
100
AcDbEntity
  8
\U+56FE\U+5C42 1
370
     0
100
AcDbVertex
100
AcDb2dVertex
 10
86.83914385849855
 20
126.6248290699063
 30
0.0
  0
VERTEX
  5
438
330
436
100
AcDbEntity
  8
\U+56FE\U+5C42 1
370
     0
100
AcDbVertex
100
AcDb2dVertex
 10
85.78976777369145
 20
123.2486354943615
 30
0.0
  0
VERTEX
  5
439
330
436
100
AcDbEntity
  8
\U+56FE\U+5C42 1
370
     0
100
AcDbVertex
100
AcDb2dVertex
 10
84.88611922791041
 20
123.6778943918236
 30
0.0
  0
VERTEX
  5
43A
330
436
100
AcDbEntity
  8
\U+56FE\U+5C42 1
370
     0
100
AcDbVertex
100
AcDb2dVertex
 10
86.83914385849855
 20
126.6248290699063
 30
0.0
  0
SEQEND
  5
43B
330
436
100
AcDbEntity
  8
\U+56FE\U+5C42 1
370
     0
  0
HATCH
  5
43C
330
432
100
AcDbEntity
  8
\U+56FE\U+5C42 1
 62
     7
420
 16777215
100
AcDbHatch
 10
0.0
 20
0.0
 30
0.0
210
0.0
220
0.0
230
1.0
  2
SOLID
 70
     1
 71
     0
 91
        1
 92
        1
 93
        3
 72
     1
 10
86.83914385849855
 20
126.6248290699063
 11
85.78976777369145
 21
123.2486354943615
 72
     1
 10
85.78976777369145
 20
123.2486354943615
 11
84.88611922791041
 21
123.6778943918236
 72
     1
 10
84.88611922791041
 20
123.6778943918236
 11
86.83914385849855
 21
126.6248290699063
 97
        0
 75
     2
 76
     1
 98
        0
  0
POLYLINE
  5
43D
330
432
100
AcDbEntity
  8
\U+56FE\U+5C42 1
 62
     7
420
 16777215
370
    13
100
AcDb2dPolyline
 66
     1
 10
0.0
 20
0.0
 30
0.0
  0
VERTEX
  5
43E
330
43D
100
AcDbEntity
  8
\U+56FE\U+5C42 1
 62
     7
420
 16777215
370
    13
100
AcDbVertex
100
AcDb2dVertex
 10
86.83914385849855
 20
126.6248290699063
 30
0.0
  0
VERTEX
  5
43F
330
43D
100
AcDbEntity
  8
\U+56FE\U+5C42 1
 62
     7
420
 16777215
370
    13
100
AcDbVertex
100
AcDb2dVertex
 10
85.78976777369145
 20
123.2486354943615
 30
0.0
  0
VERTEX
  5
440
330
43D
100
AcDbEntity
  8
\U+56FE\U+5C42 1
 62
     7
420
 16777215
370
    13
100
AcDbVertex
100
AcDb2dVertex
 10
84.88611922791041
 20
123.6778943918236
 30
0.0
  0
VERTEX
  5
441
330
43D
100
AcDbEntity
  8
\U+56FE\U+5C42 1
 62
     7
420
 16777215
370
    13
100
AcDbVertex
100
AcDb2dVertex
 10
86.83914385849855
 20
126.6248290699063
 30
0.0
  0
SEQEND
  5
442
330
43D
100
AcDbEntity
  8
\U+56FE\U+5C42 1
370
    13
  0
SPLINE
  5
443
330
432
100
AcDbEntity
  8
\U+56FE\U+5C42 1
370
     0
100
AcDbSpline
210
0.0
220
0.0
230
1.0
 70
    11
 71
     3
 72
    47
 73
    43
 74
     0
 42
0.0000000001
 43
0.0000000001
 40
0.0
 40
0.0
 40
0.0
 40
0.0
 40
1.0
 40
1.0
 40
1.0
 40
2.0
 40
2.0
 40
2.0
 40
3.0
 40
3.0
 40
3.0
 40
4.0
 40
4.0
 40
4.0
 40
5.0
 40
5.0
 40
5.0
 40
6.0
 40
6.0
 40
6.0
 40
7.0
 40
7.0
 40
7.0
 40
8.0
 40
8.0
 40
8.0
 40
9.0
 40
9.0
 40
9.0
 40
10.0
 40
10.0
 40
10.0
 40
11.0
 40
11.0
 40
11.0
 40
12.0
 40
12.0
 40
12.0
 40
13.0
 40
13.0
 40
13.0
 40
14.0
 40
14.0
 40
14.0
 40
14.0
 10
79.15554739774583
 20
106.8840874298762
 30
0.0
 10
79.15554739774583
 20
106.8840874298762
 30
0.0
 10
77.75442706389472
 20
106.8840874298762
 30
0.0
 10
77.75442706389472
 20
106.8840874298762
 30
0.0
 10
77.79990232430002
 20
106.9932969567586
 30
0.0
 10
78.00901962025469
 20
107.3343614097984
 30
0.0
 10
78.07275388673182
 20
107.4256564401575
 30
0.0
 10
78.52302786665396
 20
108.0623100858317
 30
0.0
 10
78.77796493256245
 20
108.6855278591133
 30
0.0
 10
78.84135468949106
 20
108.9449435491527
 30
0.0
 10
78.950908725922
 20
109.4041747773365
 30
0.0
 10
78.76418455062145
 20
109.817930745115
 30
0.0
 10
78.44585772778437
 20
109.817930745115
 30
0.0
 10
78.22743867401954
 20
109.817930745115
 30
0.0
 10
78.082055644542
 20
109.6449869517554
 30
0.0
 10
77.9318494813851
 20
109.2994438745849
 30
0.0
 10
77.9318494813851
 20
109.2994438745849
 30
0.0
 10
77.84985620883614
 20
109.3452636445387
 30
0.0
 10
77.84985620883614
 20
109.3452636445387
 30
0.0
 10
78.00454099612386
 20
109.7951931149123
 30
0.0
 10
78.18678654729358
 20
110.0184353023565
 30
0.0
 10
78.51854924252315
 20
110.0184353023565
 30
0.0
 10
78.87339407750387
 20
110.0184353023565
 30
0.0
 10
79.1328097675432
 20
109.6408528371731
 30
0.0
 10
79.1328097675432
 20
109.281184868513
 30
0.0
 10
79.1328097675432
 20
108.9129041611398
 30
0.0
 10
78.98708222851712
 20
108.5398003200873
 30
0.0
 10
78.48685436405884
 20
107.8304551596743
 30
0.0
 10
78.28669431636582
 20
107.5438232153015
 30
0.0
 10
78.13648815320894
 20
107.3164469132751
 30
0.0
 10
78.0365803841367
 20
107.1479817440463
 30
0.0
 10
78.0365803841367
 20
107.1479817440463
 30
0.0
 10
78.8778727016347
 20
107.1479817440463
 30
0.0
 10
78.8778727016347
 20
107.1479817440463
 30
0.0
 10
78.98708222851712
 20
107.1479817440463
 30
0.0
 10
79.05977374325589
 20
107.2434108889878
 30
0.0
 10
79.10077037953036
 20
107.584819851576
 30
0.0
 10
79.10077037953036
 20
107.584819851576
 30
0.0
 10
79.19172090034097
 20
107.584819851576
 30
0.0
 10
79.19172090034097
 20
107.584819851576
 30
0.0
 10
79.19172090034097
 20
107.584819851576
 30
0.0
 10
79.15554739774583
 20
106.8840874298762
 30
0.0
 10
79.15554739774583
 20
106.8840874298762
 30
0.0
  0
HATCH
  5
444
330
432
100
AcDbEntity
  8
\U+56FE\U+5C42 1
 62
     7
420
 16777215
100
AcDbHatch
 10
0.0
 20
0.0
 30
0.0
210
0.0
220
0.0
230
1.0
  2
SOLID
 70
     1
 71
     0
 91
        1
 92
        1
 93
        1
 72
     4
 94
        3
 73
     0
 74
     1
 95
       47
 96
       43
 40
0.0
 40
0.0
 40
0.0
 40
0.0
 40
1.0
 40
1.0
 40
1.0
 40
2.0
 40
2.0
 40
2.0
 40
3.0
 40
3.0
 40
3.0
 40
4.0
 40
4.0
 40
4.0
 40
5.0
 40
5.0
 40
5.0
 40
6.0
 40
6.0
 40
6.0
 40
7.0
 40
7.0
 40
7.0
 40
8.0
 40
8.0
 40
8.0
 40
9.0
 40
9.0
 40
9.0
 40
10.0
 40
10.0
 40
10.0
 40
11.0
 40
11.0
 40
11.0
 40
12.0
 40
12.0
 40
12.0
 40
13.0
 40
13.0
 40
13.0
 40
14.0
 40
14.0
 40
14.0
 40
14.0
 10
79.15554739774583
 20
106.8840874298762
 10
79.15554739774583
 20
106.8840874298762
 10
77.75442706389472
 20
106.8840874298762
 10
77.75442706389472
 20
106.8840874298762
 10
77.79990232430002
 20
106.9932969567586
 10
78.00901962025469
 20
107.3343614097984
 10
78.07275388673182
 20
107.4256564401575
 10
78.52302786665396
 20
108.0623100858317
 10
78.77796493256245
 20
108.6855278591133
 10
78.84135468949106
 20
108.9449435491527
 10
78.950908725922
 20
109.4041747773365
 10
78.76418455062145
 20
109.817930745115
 10
78.44585772778437
 20
109.817930745115
 10
78.22743867401954
 20
109.817930745115
 10
78.082055644542
 20
109.6449869517554
 10
77.9318494813851
 20
109.2994438745849
 10
77.9318494813851
 20
109.2994438745849
 10
77.84985620883614
 20
109.3452636445387
 10
77.84985620883614
 20
109.3452636445387
 10
78.00454099612386
 20
109.7951931149123
 10
78.18678654729358
 20
110.0184353023565
 10
78.51854924252315
 20
110.0184353023565
 10
78.87339407750387
 20
110.0184353023565
 10
79.1328097675432
 20
109.6408528371731
 10
79.1328097675432
 20
109.281184868513
 10
79.1328097675432
 20
108.9129041611398
 10
78.98708222851712
 20
108.5398003200873
 10
78.48685436405884
 20
107.8304551596743
 10
78.28669431636582
 20
107.5438232153015
 10
78.13648815320894
 20
107.3164469132751
 10
78.0365803841367
 20
107.1479817440463
 10
78.0365803841367
 20
107.1479817440463
 10
78.8778727016347
 20
107.1479817440463
 10
78.8778727016347
 20
107.1479817440463
 10
78.98708222851712
 20
107.1479817440463
 10
79.05977374325589
 20
107.2434108889878
 10
79.10077037953036
 20
107.584819851576
 10
79.10077037953036
 20
107.584819851576
 10
79.19172090034097
 20
107.584819851576
 10
79.19172090034097
 20
107.584819851576
 10
79.19172090034097
 20
107.584819851576
 10
79.15554739774583
 20
106.8840874298762
 10
79.15554739774583
 20
106.8840874298762
 97
        0
 75
     2
 76
     1
 98
        0
  0
POLYLINE
  5
445
330
432
100
AcDbEntity
  8
\U+56FE\U+5C42 1
 62
     7
420
 16777215
370
    13
100
AcDb2dPolyline
 66
     1
 10
0.0
 20
0.0
 30
0.0
  0
VERTEX
  5
446
330
445
100
AcDbEntity
  8
\U+56FE\U+5C42 1
 62
     7
420
 16777215
370
    13
100
AcDbVertex
100
AcDb2dVertex
 10
86.80779348958278
 20
126.6444661141722
 30
0.0
  0
VERTEX
  5
447
330
445
100
AcDbEntity
  8
\U+56FE\U+5C42 1
 62
     7
420
 16777215
370
    13
100
AcDbVertex
100
AcDb2dVertex
 10
80.06264103901212
 20
112.2704942210643
 30
0.0
  0
SEQEND
  5
448
330
445
100
AcDbEntity
  8
\U+56FE\U+5C42 1
370
    13
  0
SPLINE
  5
449
330
432
100
AcDbEntity
  8
\U+56FE\U+5C42 1
 62
     7
420
 16777215
370
    13
100
AcDbSpline
210
0.0
220
0.0
230
1.0
 70
    11
 71
     3
 72
    17
 73
    13
 74
     0
 42
0.0000000001
 43
0.0000000001
 40
0.0
 40
0.0
 40
0.0
 40
0.0
 40
1.0
 40
1.0
 40
1.0
 40
2.0
 40
2.0
 40
2.0
 40
3.0
 40
3.0
 40
3.0
 40
4.0
 40
4.0
 40
4.0
 40
4.0
 10
80.62522513175342
 20
111.8780978452944
 30
0.0
 10
78.73248967215716
 20
113.0670002972541
 30
0.0
 10
76.23513995489955
 20
112.4961479753482
 30
0.0
 10
75.04623750293983
 20
110.6037570253005
 30
0.0
 10
73.85733505098011
 20
108.7110215657042
 30
0.0
 10
74.42784286333749
 20
106.2133273388981
 30
0.0
 10
76.32057832293374
 20
105.0244248869383
 30
0.0
 10
78.21296927298148
 20
103.8358669445272
 30
0.0
 10
80.71100800933614
 20
104.4063747568845
 30
0.0
 10
81.89991046129586
 20
106.2991102164808
 30
0.0
 10
83.08846840370705
 20
108.1915011665285
 30
0.0
 10
82.51796059134968
 20
110.6895399028832
 30
0.0
 10
80.62522513175342
 20
111.8780978452944
 30
0.0
  0
ENDBLK
  5
435
330
432
100
AcDbEntity
  8
0
100
AcDbBlockEnd
  0
BLOCK
  5
44C
330
44A
100
AcDbEntity
  8
0
100
AcDbBlockBegin
  2
block 9
 70
     0
 71
     0
 10
0.0
 20
0.0
 30
0.0
  3
block 9
  1

  0
SPLINE
  5
44E
330
44A
100
AcDbEntity
  8
\U+56FE\U+5C42 1
370
     0
100
AcDbSpline
210
0.0
220
0.0
230
1.0
 70
    11
 71
     3
 72
    41
 73
    37
 74
     0
 42
0.0000000001
 43
0.0000000001
 40
0.0
 40
0.0
 40
0.0
 40
0.0
 40
1.0
 40
1.0
 40
1.0
 40
2.0
 40
2.0
 40
2.0
 40
3.0
 40
3.0
 40
3.0
 40
4.0
 40
4.0
 40
4.0
 40
5.0
 40
5.0
 40
5.0
 40
6.0
 40
6.0
 40
6.0
 40
7.0
 40
7.0
 40
7.0
 40
8.0
 40
8.0
 40
8.0
 40
9.0
 40
9.0
 40
9.0
 40
10.0
 40
10.0
 40
10.0
 40
11.0
 40
11.0
 40
11.0
 40
12.0
 40
12.0
 40
12.0
 40
12.0
 10
120.5271823157884
 20
106.8479139272811
 30
0.0
 10
120.5271823157884
 20
106.8479139272811
 30
0.0
 10
120.5271823157884
 20
106.9936414663072
 30
0.0
 10
120.5271823157884
 20
106.9936414663072
 30
0.0
 10
120.5271823157884
 20
106.9936414663072
 30
0.0
 10
120.763860375625
 20
106.9936414663072
 30
0.0
 10
120.763860375625
 20
106.9936414663072
 30
0.0
 10
120.8816826412206
 20
106.9936414663072
 30
0.0
 10
120.9498955318285
 20
107.0663329810459
 30
0.0
 10
120.9498955318285
 20
107.1710638837975
 30
0.0
 10
120.9498955318285
 20
107.1710638837975
 30
0.0
 10
120.9498955318285
 20
109.7045871036502
 30
0.0
 10
120.9498955318285
 20
109.7045871036502
 30
0.0
 10
120.9498955318285
 20
109.7045871036502
 30
0.0
 10
120.5909165822655
 20
109.645331461304
 30
0.0
 10
120.5909165822655
 20
109.645331461304
 30
0.0
 10
120.5909165822655
 20
109.645331461304
 30
0.0
 10
120.5909165822655
 20
109.777278618389
 30
0.0
 10
120.5909165822655
 20
109.777278618389
 30
0.0
 10
120.8272501325536
 20
109.8272325029251
 30
0.0
 10
121.004672550044
 20
109.9092257754741
 30
0.0
 10
121.1776163434035
 20
110.0546088049516
 30
0.0
 10
121.1776163434035
 20
110.0546088049516
 30
0.0
 10
121.1776163434035
 20
107.1710638837975
 30
0.0
 10
121.1776163434035
 20
107.1710638837975
 30
0.0
 10
121.1776163434035
 20
107.0573757327843
 30
0.0
 10
121.2458292340115
 20
106.9936414663072
 30
0.0
 10
121.3688191428349
 20
106.9936414663072
 30
0.0
 10
121.3688191428349
 20
106.9936414663072
 30
0.0
 10
121.5868936870512
 20
106.9936414663072
 30
0.0
 10
121.5868936870512
 20
106.9936414663072
 30
0.0
 10
121.5868936870512
 20
106.9936414663072
 30
0.0
 10
121.5868936870512
 20
106.8479139272811
 30
0.0
 10
121.5868936870512
 20
106.8479139272811
 30
0.0
 10
121.5868936870512
 20
106.8479139272811
 30
0.0
 10
120.5271823157884
 20
106.8479139272811
 30
0.0
 10
120.5271823157884
 20
106.8479139272811
 30
0.0
  0
HATCH
  5
44F
330
44A
100
AcDbEntity
  8
\U+56FE\U+5C42 1
 62
     7
420
 16777215
100
AcDbHatch
 10
0.0
 20
0.0
 30
0.0
210
0.0
220
0.0
230
1.0
  2
SOLID
 70
     1
 71
     0
 91
        1
 92
        1
 93
        1
 72
     4
 94
        3
 73
     0
 74
     1
 95
       41
 96
       37
 40
0.0
 40
0.0
 40
0.0
 40
0.0
 40
1.0
 40
1.0
 40
1.0
 40
2.0
 40
2.0
 40
2.0
 40
3.0
 40
3.0
 40
3.0
 40
4.0
 40
4.0
 40
4.0
 40
5.0
 40
5.0
 40
5.0
 40
6.0
 40
6.0
 40
6.0
 40
7.0
 40
7.0
 40
7.0
 40
8.0
 40
8.0
 40
8.0
 40
9.0
 40
9.0
 40
9.0
 40
10.0
 40
10.0
 40
10.0
 40
11.0
 40
11.0
 40
11.0
 40
12.0
 40
12.0
 40
12.0
 40
12.0
 10
120.5271823157884
 20
106.8479139272811
 10
120.5271823157884
 20
106.8479139272811
 10
120.5271823157884
 20
106.9936414663072
 10
120.5271823157884
 20
106.9936414663072
 10
120.5271823157884
 20
106.9936414663072
 10
120.763860375625
 20
106.9936414663072
 10
120.763860375625
 20
106.9936414663072
 10
120.8816826412206
 20
106.9936414663072
 10
120.9498955318285
 20
107.0663329810459
 10
120.9498955318285
 20
107.1710638837975
 10
120.9498955318285
 20
107.1710638837975
 10
120.9498955318285
 20
109.7045871036502
 10
120.9498955318285
 20
109.7045871036502
 10
120.9498955318285
 20
109.7045871036502
 10
120.5909165822655
 20
109.645331461304
 10
120.5909165822655
 20
109.645331461304
 10
120.5909165822655
 20
109.645331461304
 10
120.5909165822655
 20
109.777278618389
 10
120.5909165822655
 20
109.777278618389
 10
120.8272501325536
 20
109.8272325029251
 10
121.004672550044
 20
109.9092257754741
 10
121.1776163434035
 20
110.0546088049516
 10
121.1776163434035
 20
110.0546088049516
 10
121.1776163434035
 20
107.1710638837975
 10
121.1776163434035
 20
107.1710638837975
 10
121.1776163434035
 20
107.0573757327843
 10
121.2458292340115
 20
106.9936414663072
 10
121.3688191428349
 20
106.9936414663072
 10
121.3688191428349
 20
106.9936414663072
 10
121.5868936870512
 20
106.9936414663072
 10
121.5868936870512
 20
106.9936414663072
 10
121.5868936870512
 20
106.9936414663072
 10
121.5868936870512
 20
106.8479139272811
 10
121.5868936870512
 20
106.8479139272811
 10
121.5868936870512
 20
106.8479139272811
 10
120.5271823157884
 20
106.8479139272811
 10
120.5271823157884
 20
106.8479139272811
 97
        0
 75
     2
 76
     1
 98
        0
  0
POLYLINE
  5
450
330
44A
100
AcDbEntity
  8
\U+56FE\U+5C42 1
370
     0
100
AcDb2dPolyline
 66
     1
 10
0.0
 20
0.0
 30
0.0
  0
VERTEX
  5
451
330
450
100
AcDbEntity
  8
\U+56FE\U+5C42 1
370
     0
100
AcDbVertex
100
AcDb2dVertex
 10
129.4232801325747
 20
126.6248290699063
 30
0.0
  0
VERTEX
  5
452
330
450
100
AcDbEntity
  8
\U+56FE\U+5C42 1
370
     0
100
AcDbVertex
100
AcDb2dVertex
 10
128.3739040477676
 20
123.2486354943615
 30
0.0
  0
VERTEX
  5
453
330
450
100
AcDbEntity
  8
\U+56FE\U+5C42 1
370
     0
100
AcDbVertex
100
AcDb2dVertex
 10
127.4702555019866
 20
123.6778943918236
 30
0.0
  0
VERTEX
  5
454
330
450
100
AcDbEntity
  8
\U+56FE\U+5C42 1
370
     0
100
AcDbVertex
100
AcDb2dVertex
 10
129.4232801325747
 20
126.6248290699063
 30
0.0
  0
SEQEND
  5
455
330
450
100
AcDbEntity
  8
\U+56FE\U+5C42 1
370
     0
  0
HATCH
  5
456
330
44A
100
AcDbEntity
  8
\U+56FE\U+5C42 1
 62
     7
420
 16777215
100
AcDbHatch
 10
0.0
 20
0.0
 30
0.0
210
0.0
220
0.0
230
1.0
  2
SOLID
 70
     1
 71
     0
 91
        1
 92
        1
 93
        3
 72
     1
 10
129.4232801325747
 20
126.6248290699063
 11
128.3739040477676
 21
123.2486354943615
 72
     1
 10
128.3739040477676
 20
123.2486354943615
 11
127.4702555019866
 21
123.6778943918236
 72
     1
 10
127.4702555019866
 20
123.6778943918236
 11
129.4232801325747
 21
126.6248290699063
 97
        0
 75
     2
 76
     1
 98
        0
  0
POLYLINE
  5
457
330
44A
100
AcDbEntity
  8
\U+56FE\U+5C42 1
 62
     7
420
 16777215
370
    13
100
AcDb2dPolyline
 66
     1
 10
0.0
 20
0.0
 30
0.0
  0
VERTEX
  5
458
330
457
100
AcDbEntity
  8
\U+56FE\U+5C42 1
 62
     7
420
 16777215
370
    13
100
AcDbVertex
100
AcDb2dVertex
 10
129.4232801325747
 20
126.6248290699063
 30
0.0
  0
VERTEX
  5
459
330
457
100
AcDbEntity
  8
\U+56FE\U+5C42 1
 62
     7
420
 16777215
370
    13
100
AcDbVertex
100
AcDb2dVertex
 10
128.3739040477676
 20
123.2486354943615
 30
0.0
  0
VERTEX
  5
45A
330
457
100
AcDbEntity
  8
\U+56FE\U+5C42 1
 62
     7
420
 16777215
370
    13
100
AcDbVertex
100
AcDb2dVertex
 10
127.4702555019866
 20
123.6778943918236
 30
0.0
  0
VERTEX
  5
45B
330
457
100
AcDbEntity
  8
\U+56FE\U+5C42 1
 62
     7
420
 16777215
370
    13
100
AcDbVertex
100
AcDb2dVertex
 10
129.4232801325747
 20
126.6248290699063
 30
0.0
  0
SEQEND
  5
45C
330
457
100
AcDbEntity
  8
\U+56FE\U+5C42 1
370
    13
  0
POLYLINE
  5
45D
330
44A
100
AcDbEntity
  8
\U+56FE\U+5C42 1
 62
     7
420
 16777215
370
    13
100
AcDb2dPolyline
 66
     1
 10
0.0
 20
0.0
 30
0.0
  0
VERTEX
  5
45E
330
45D
100
AcDbEntity
  8
\U+56FE\U+5C42 1
 62
     7
420
 16777215
370
    13
100
AcDbVertex
100
AcDb2dVertex
 10
129.391929763659
 20
126.6444661141722
 30
0.0
  0
VERTEX
  5
45F
330
45D
100
AcDbEntity
  8
\U+56FE\U+5C42 1
 62
     7
420
 16777215
370
    13
100
AcDbVertex
100
AcDb2dVertex
 10
122.6467773130883
 20
112.2704942210643
 30
0.0
  0
SEQEND
  5
460
330
45D
100
AcDbEntity
  8
\U+56FE\U+5C42 1
370
    13
  0
SPLINE
  5
461
330
44A
100
AcDbEntity
  8
\U+56FE\U+5C42 1
 62
     7
420
 16777215
370
    13
100
AcDbSpline
210
0.0
220
0.0
230
1.0
 70
    11
 71
     3
 72
    17
 73
    13
 74
     0
 42
0.0000000001
 43
0.0000000001
 40
0.0
 40
0.0
 40
0.0
 40
0.0
 40
1.0
 40
1.0
 40
1.0
 40
2.0
 40
2.0
 40
2.0
 40
3.0
 40
3.0
 40
3.0
 40
4.0
 40
4.0
 40
4.0
 40
4.0
 10
123.2093614058296
 20
111.8780978452944
 30
0.0
 10
121.3166259462333
 20
113.0670002972541
 30
0.0
 10
118.8192762289757
 20
112.4961479753482
 30
0.0
 10
117.630373777016
 20
110.6037570253005
 30
0.0
 10
116.4414713250563
 20
108.7110215657042
 30
0.0
 10
117.0119791374137
 20
106.2133273388981
 30
0.0
 10
118.9047145970099
 20
105.0244248869383
 30
0.0
 10
120.7971055470577
 20
103.8358669445272
 30
0.0
 10
123.2951442834123
 20
104.4063747568845
 30
0.0
 10
124.484046735372
 20
106.2991102164808
 30
0.0
 10
125.6726046777832
 20
108.1915011665285
 30
0.0
 10
125.1020968654259
 20
110.6895399028832
 30
0.0
 10
123.2093614058296
 20
111.8780978452944
 30
0.0
  0
ENDBLK
  5
44D
330
44A
100
AcDbEntity
  8
0
100
AcDbBlockEnd
  0
ENDSEC
  0
SECTION
  2
ENTITIES
  0
POLYLINE
  5
3C
330
1F
100
AcDbEntity
  8
\U+56FE\U+5C42 1
 62
     7
420
 16777215
370
    35
100
AcDb2dPolyline
 66
     1
 10
0.0
 20
0.0
 30
0.0
  0
VERTEX
  5
3D
330
3C
100
AcDbEntity
  8
\U+56FE\U+5C42 1
 62
     7
420
 16777215
370
    35
100
AcDbVertex
100
AcDb2dVertex
 10
112.9958590754837
 20
35.37975259532173
 30
0.0
  0
VERTEX
  5
3E
330
3C
100
AcDbEntity
  8
\U+56FE\U+5C42 1
 62
     7
420
 16777215
370
    35
100
AcDbVertex
100
AcDb2dVertex
 10
372.9960095638691
 20
35.37975259532173
 30
0.0
  0
SEQEND
  5
3F
330
3C
100
AcDbEntity
  8
\U+56FE\U+5C42 1
370
    35
  0
POLYLINE
  5
40
330
1F
100
AcDbEntity
  8
\U+56FE\U+5C42 1
 62
     7
420
 16777215
370
    35
100
AcDb2dPolyline
 66
     1
 10
0.0
 20
0.0
 30
0.0
  0
VERTEX
  5
41
330
40
100
AcDbEntity
  8
\U+56FE\U+5C42 1
 62
     7
420
 16777215
370
    35
100
AcDbVertex
100
AcDb2dVertex
 10
112.9958590754837
 20
35.37975259532173
 30
0.0
  0
VERTEX
  5
42
330
40
100
AcDbEntity
  8
\U+56FE\U+5C42 1
 62
     7
420
 16777215
370
    35
100
AcDbVertex
100
AcDb2dVertex
 10
112.9958590754837
 20
5.379861109766146
 30
0.0
  0
SEQEND
  5
43
330
40
100
AcDbEntity
  8
\U+56FE\U+5C42 1
370
    35
  0
POLYLINE
  5
44
330
1F
100
AcDbEntity
  8
\U+56FE\U+5C42 1
 62
     7
420
 16777215
370
    35
100
AcDb2dPolyline
 66
     1
 10
0.0
 20
0.0
 30
0.0
  0
VERTEX
  5
45
330
44
100
AcDbEntity
  8
\U+56FE\U+5C42 1
 62
     7
420
 16777215
370
    35
100
AcDbVertex
100
AcDb2dVertex
 10
112.9958590754837
 20
30.37988551757864
 30
0.0
  0
VERTEX
  5
46
330
44
100
AcDbEntity
  8
\U+56FE\U+5C42 1
 62
     7
420
 16777215
370
    35
100
AcDbVertex
100
AcDb2dVertex
 10
282.9959905976538
 20
30.37988551757864
 30
0.0
  0
SEQEND
  5
47
330
44
100
AcDbEntity
  8
\U+56FE\U+5C42 1
370
    35
  0
POLYLINE
  5
48
330
1F
100
AcDbEntity
  8
\U+56FE\U+5C42 1
 62
     7
420
 16777215
370
    35
100
AcDb2dPolyline
 66
     1
 10
0.0
 20
0.0
 30
0.0
  0
VERTEX
  5
49
330
48
100
AcDbEntity
  8
\U+56FE\U+5C42 1
 62
     7
420
 16777215
370
    35
100
AcDbVertex
100
AcDb2dVertex
 10
112.9958590754837
 20
25.37967393028703
 30
0.0
  0
VERTEX
  5
4A
330
48
100
AcDbEntity
  8
\U+56FE\U+5C42 1
 62
     7
420
 16777215
370
    35
100
AcDbVertex
100
AcDb2dVertex
 10
282.9959905976538
 20
25.37967393028703
 30
0.0
  0
SEQEND
  5
4B
330
48
100
AcDbEntity
  8
\U+56FE\U+5C42 1
370
    35
  0
POLYLINE
  5
4C
330
1F
100
AcDbEntity
  8
\U+56FE\U+5C42 1
 62
     7
420
 16777215
370
    35
100
AcDb2dPolyline
 66
     1
 10
0.0
 20
0.0
 30
0.0
  0
VERTEX
  5
4D
330
4C
100
AcDbEntity
  8
\U+56FE\U+5C42 1
 62
     7
420
 16777215
370
    35
100
AcDbVertex
100
AcDb2dVertex
 10
112.9958590754837
 20
20.37980685254394
 30
0.0
  0
VERTEX
  5
4E
330
4C
100
AcDbEntity
  8
\U+56FE\U+5C42 1
 62
     7
420
 16777215
370
    35
100
AcDbVertex
100
AcDb2dVertex
 10
372.9960095638691
 20
20.37980685254394
 30
0.0
  0
SEQEND
  5
4F
330
4C
100
AcDbEntity
  8
\U+56FE\U+5C42 1
370
    35
  0
POLYLINE
  5
50
330
1F
100
AcDbEntity
  8
\U+56FE\U+5C42 1
 62
     7
420
 16777215
370
    35
100
AcDb2dPolyline
 66
     1
 10
0.0
 20
0.0
 30
0.0
  0
VERTEX
  5
51
330
50
100
AcDbEntity
  8
\U+56FE\U+5C42 1
 62
     7
420
 16777215
370
    35
100
AcDbVertex
100
AcDb2dVertex
 10
112.9958590754837
 20
15.37959526525232
 30
0.0
  0
VERTEX
  5
52
330
50
100
AcDbEntity
  8
\U+56FE\U+5C42 1
 62
     7
420
 16777215
370
    35
100
AcDbVertex
100
AcDb2dVertex
 10
372.9960095638691
 20
15.37959526525232
 30
0.0
  0
SEQEND
  5
53
330
50
100
AcDbEntity
  8
\U+56FE\U+5C42 1
370
    35
  0
POLYLINE
  5
54
330
1F
100
AcDbEntity
  8
\U+56FE\U+5C42 1
 62
     7
420
 16777215
370
    35
100
AcDb2dPolyline
 66
     1
 10
0.0
 20
0.0
 30
0.0
  0
VERTEX
  5
55
330
54
100
AcDbEntity
  8
\U+56FE\U+5C42 1
 62
     7
420
 16777215
370
    35
100
AcDbVertex
100
AcDb2dVertex
 10
112.9958590754837
 20
10.37972818750923
 30
0.0
  0
VERTEX
  5
56
330
54
100
AcDbEntity
  8
\U+56FE\U+5C42 1
 62
     7
420
 16777215
370
    35
100
AcDbVertex
100
AcDb2dVertex
 10
222.9958631169941
 20
10.37972818750923
 30
0.0
  0
SEQEND
  5
57
330
54
100
AcDbEntity
  8
\U+56FE\U+5C42 1
370
    35
  0
POLYLINE
  5
58
330
1F
100
AcDbEntity
  8
\U+56FE\U+5C42 1
 62
     7
420
 16777215
370
    35
100
AcDb2dPolyline
 66
     1
 10
0.0
 20
0.0
 30
0.0
  0
VERTEX
  5
59
330
58
100
AcDbEntity
  8
\U+56FE\U+5C42 1
 62
     7
420
 16777215
370
    35
100
AcDbVertex
100
AcDb2dVertex
 10
112.9958590754837
 20
5.379861109766146
 30
0.0
  0
VERTEX
  5
5A
330
58
100
AcDbEntity
  8
\U+56FE\U+5C42 1
 62
     7
420
 16777215
370
    35
100
AcDbVertex
100
AcDb2dVertex
 10
372.9960095638691
 20
5.379861109766146
 30
0.0
  0
SEQEND
  5
5B
330
58
100
AcDbEntity
  8
\U+56FE\U+5C42 1
370
    35
  0
POLYLINE
  5
5C
330
1F
100
AcDbEntity
  8
\U+56FE\U+5C42 1
 62
     7
420
 16777215
370
    35
100
AcDb2dPolyline
 66
     1
 10
0.0
 20
0.0
 30
0.0
  0
VERTEX
  5
5D
330
5C
100
AcDbEntity
  8
\U+56FE\U+5C42 1
 62
     7
420
 16777215
370
    35
100
AcDbVertex
100
AcDb2dVertex
 10
122.9959377405184
 20
35.37975259532173
 30
0.0
  0
VERTEX
  5
5E
330
5C
100
AcDbEntity
  8
\U+56FE\U+5C42 1
 62
     7
420
 16777215
370
    35
100
AcDbVertex
100
AcDb2dVertex
 10
122.9959377405184
 20
5.379861109766146
 30
0.0
  0
SEQEND
  5
5F
330
5C
100
AcDbEntity
  8
\U+56FE\U+5C42 1
370
    35
  0
POLYLINE
  5
60
330
1F
100
AcDbEntity
  8
\U+56FE\U+5C42 1
 62
     7
420
 16777215
370
    35
100
AcDb2dPolyline
 66
     1
 10
0.0
 20
0.0
 30
0.0
  0
VERTEX
  5
61
330
60
100
AcDbEntity
  8
\U+56FE\U+5C42 1
 62
     7
420
 16777215
370
    35
100
AcDbVertex
100
AcDb2dVertex
 10
152.995829226074
 20
35.37975259532173
 30
0.0
  0
VERTEX
  5
62
330
60
100
AcDbEntity
  8
\U+56FE\U+5C42 1
 62
     7
420
 16777215
370
    35
100
AcDbVertex
100
AcDb2dVertex
 10
152.995829226074
 20
5.379861109766146
 30
0.0
  0
SEQEND
  5
63
330
60
100
AcDbEntity
  8
\U+56FE\U+5C42 1
370
    35
  0
POLYLINE
  5
64
330
1F
100
AcDbEntity
  8
\U+56FE\U+5C42 1
 62
     7
420
 16777215
370
    35
100
AcDb2dPolyline
 66
     1
 10
0.0
 20
0.0
 30
0.0
  0
VERTEX
  5
65
330
64
100
AcDbEntity
  8
\U+56FE\U+5C42 1
 62
     7
420
 16777215
370
    35
100
AcDbVertex
100
AcDb2dVertex
 10
162.9959078911087
 20
35.37975259532173
 30
0.0
  0
VERTEX
  5
66
330
64
100
AcDbEntity
  8
\U+56FE\U+5C42 1
 62
     7
420
 16777215
370
    35
100
AcDbVertex
100
AcDb2dVertex
 10
162.9959078911087
 20
5.379861109766146
 30
0.0
  0
SEQEND
  5
67
330
64
100
AcDbEntity
  8
\U+56FE\U+5C42 1
370
    35
  0
POLYLINE
  5
68
330
1F
100
AcDbEntity
  8
\U+56FE\U+5C42 1
 62
     7
420
 16777215
370
    35
100
AcDb2dPolyline
 66
     1
 10
0.0
 20
0.0
 30
0.0
  0
VERTEX
  5
69
330
68
100
AcDbEntity
  8
\U+56FE\U+5C42 1
 62
     7
420
 16777215
370
    35
100
AcDbVertex
100
AcDb2dVertex
 10
202.9957057869247
 20
35.37975259532173
 30
0.0
  0
VERTEX
  5
6A
330
68
100
AcDbEntity
  8
\U+56FE\U+5C42 1
 62
     7
420
 16777215
370
    35
100
AcDbVertex
100
AcDb2dVertex
 10
202.9957057869247
 20
5.379861109766146
 30
0.0
  0
SEQEND
  5
6B
330
68
100
AcDbEntity
  8
\U+56FE\U+5C42 1
370
    35
  0
POLYLINE
  5
6C
330
1F
100
AcDbEntity
  8
\U+56FE\U+5C42 1
 62
     7
420
 16777215
370
    35
100
AcDb2dPolyline
 66
     1
 10
0.0
 20
0.0
 30
0.0
  0
VERTEX
  5
6D
330
6C
100
AcDbEntity
  8
\U+56FE\U+5C42 1
 62
     7
420
 16777215
370
    35
100
AcDbVertex
100
AcDb2dVertex
 10
222.9958631169941
 20
35.37975259532173
 30
0.0
  0
VERTEX
  5
6E
330
6C
100
AcDbEntity
  8
\U+56FE\U+5C42 1
 62
     7
420
 16777215
370
    35
100
AcDbVertex
100
AcDb2dVertex
 10
222.9958631169941
 20
5.379861109766146
 30
0.0
  0
SEQEND
  5
6F
330
6C
100
AcDbEntity
  8
\U+56FE\U+5C42 1
370
    35
  0
POLYLINE
  5
70
330
1F
100
AcDbEntity
  8
\U+56FE\U+5C42 1
 62
     7
420
 16777215
370
    35
100
AcDb2dPolyline
 66
     1
 10
0.0
 20
0.0
 30
0.0
  0
VERTEX
  5
71
330
70
100
AcDbEntity
  8
\U+56FE\U+5C42 1
 62
     7
420
 16777215
370
    35
100
AcDbVertex
100
AcDb2dVertex
 10
242.9960204470635
 20
35.37975259532173
 30
0.0
  0
VERTEX
  5
72
330
70
100
AcDbEntity
  8
\U+56FE\U+5C42 1
 62
     7
420
 16777215
370
    35
100
AcDbVertex
100
AcDb2dVertex
 10
242.9960204470635
 20
5.379861109766146
 30
0.0
  0
SEQEND
  5
73
330
70
100
AcDbEntity
  8
\U+56FE\U+5C42 1
370
    35
  0
POLYLINE
  5
74
330
1F
100
AcDbEntity
  8
\U+56FE\U+5C42 1
 62
     7
420
 16777215
370
    35
100
AcDb2dPolyline
 66
     1
 10
0.0
 20
0.0
 30
0.0
  0
VERTEX
  5
75
330
74
100
AcDbEntity
  8
\U+56FE\U+5C42 1
 62
     7
420
 16777215
370
    35
100
AcDbVertex
100
AcDb2dVertex
 10
262.9958332675844
 20
20.37980685254394
 30
0.0
  0
VERTEX
  5
76
330
74
100
AcDbEntity
  8
\U+56FE\U+5C42 1
 62
     7
420
 16777215
370
    35
100
AcDbVertex
100
AcDb2dVertex
 10
262.9958332675844
 20
5.379861109766146
 30
0.0
  0
SEQEND
  5
77
330
74
100
AcDbEntity
  8
\U+56FE\U+5C42 1
370
    35
  0
POLYLINE
  5
78
330
1F
100
AcDbEntity
  8
\U+56FE\U+5C42 1
 62
     7
420
 16777215
370
    35
100
AcDb2dPolyline
 66
     1
 10
0.0
 20
0.0
 30
0.0
  0
VERTEX
  5
79
330
78
100
AcDbEntity
  8
\U+56FE\U+5C42 1
 62
     7
420
 16777215
370
    35
100
AcDbVertex
100
AcDb2dVertex
 10
282.9959905976538
 20
35.37975259532173
 30
0.0
  0
VERTEX
  5
7A
330
78
100
AcDbEntity
  8
\U+56FE\U+5C42 1
 62
     7
420
 16777215
370
    35
100
AcDbVertex
100
AcDb2dVertex
 10
282.9959905976538
 20
5.379861109766146
 30
0.0
  0
SEQEND
  5
7B
330
78
100
AcDbEntity
  8
\U+56FE\U+5C42 1
370
    35
  0
POLYLINE
  5
7C
330
1F
100
AcDbEntity
  8
\U+56FE\U+5C42 1
 62
     7
420
 16777215
370
    35
100
AcDb2dPolyline
 66
     1
 10
0.0
 20
0.0
 30
0.0
  0
VERTEX
  5
7D
330
7C
100
AcDbEntity
  8
\U+56FE\U+5C42 1
 62
     7
420
 16777215
370
    35
100
AcDbVertex
100
AcDb2dVertex
 10
292.9960692626885
 20
35.37975259532173
 30
0.0
  0
VERTEX
  5
7E
330
7C
100
AcDbEntity
  8
\U+56FE\U+5C42 1
 62
     7
420
 16777215
370
    35
100
AcDbVertex
100
AcDb2dVertex
 10
292.9960692626885
 20
15.37959526525232
 30
0.0
  0
SEQEND
  5
7F
330
7C
100
AcDbEntity
  8
\U+56FE\U+5C42 1
370
    35
  0
POLYLINE
  5
80
330
1F
100
AcDbEntity
  8
\U+56FE\U+5C42 1
 62
     7
420
 16777215
370
    35
100
AcDb2dPolyline
 66
     1
 10
0.0
 20
0.0
 30
0.0
  0
VERTEX
  5
81
330
80
100
AcDbEntity
  8
\U+56FE\U+5C42 1
 62
     7
420
 16777215
370
    35
100
AcDbVertex
100
AcDb2dVertex
 10
372.9960095638691
 20
35.37975259532173
 30
0.0
  0
VERTEX
  5
82
330
80
100
AcDbEntity
  8
\U+56FE\U+5C42 1
 62
     7
420
 16777215
370
    35
100
AcDbVertex
100
AcDb2dVertex
 10
372.9960095638691
 20
5.379861109766146
 30
0.0
  0
SEQEND
  5
83
330
80
100
AcDbEntity
  8
\U+56FE\U+5C42 1
370
    35
  0
INSERT
  5
85
330
1F
100
AcDbEntity
  8
\U+56FE\U+5C42 1
100
AcDbBlockReference
  2
block 2
 10
0.0
 20
0.0
 30
0.0
  0
POLYLINE
  5
CC
330
1F
100
AcDbEntity
  8
\U+56FE\U+5C42 1
 62
     7
420
 16777215
370
    70
100
AcDb2dPolyline
 66
     1
 10
0.0
 20
0.0
 30
0.0
  0
VERTEX
  5
CD
330
CC
100
AcDbEntity
  8
\U+56FE\U+5C42 1
 62
     7
420
 16777215
370
    70
100
AcDbVertex
100
AcDb2dVertex
 10
293.6144639022908
 20
234.9799722719842
 30
0.0
  0
VERTEX
  5
CE
330
CC
100
AcDbEntity
  8
\U+56FE\U+5C42 1
 62
     7
420
 16777215
370
    70
100
AcDbVertex
100
AcDb2dVertex
 10
373.6144042034714
 20
234.9799722719842
 30
0.0
  0
SEQEND
  5
CF
330
CC
100
AcDbEntity
  8
\U+56FE\U+5C42 1
370
    70
  0
POLYLINE
  5
D0
330
1F
100
AcDbEntity
  8
\U+56FE\U+5C42 1
 62
     7
420
 16777215
370
    13
100
AcDb2dPolyline
 66
     1
 10
0.0
 20
0.0
 30
0.0
  0
VERTEX
  5
D1
330
D0
100
AcDbEntity
  8
\U+56FE\U+5C42 1
 62
     7
420
 16777215
370
    13
100
AcDbVertex
100
AcDb2dVertex
 10
239.9998209035417
 20
4.999867077743089
 30
0.0
  0
VERTEX
  5
D2
330
D0
100
AcDbEntity
  8
\U+56FE\U+5C42 1
 62
     7
420
 16777215
370
    13
100
AcDbVertex
100
AcDb2dVertex
 10
292.9998588677223
 20
4.999867077743089
 30
0.0
  0
SEQEND
  5
D3
330
D0
100
AcDbEntity
  8
\U+56FE\U+5C42 1
370
    13
  0
POLYLINE
  5
D4
330
1F
100
AcDbEntity
  8
\U+56FE\U+5C42 1
 62
     7
420
 16777215
370
    70
100
AcDb2dPolyline
 66
     1
 10
0.0
 20
0.0
 30
0.0
  0
VERTEX
  5
D5
330
D4
100
AcDbEntity
  8
\U+56FE\U+5C42 1
 62
     7
420
 16777215
370
    70
100
AcDbVertex
100
AcDb2dVertex
 10
45.99994844770141
 20
234.9799722719842
 30
0.0
  0
VERTEX
  5
D6
330
D4
100
AcDbEntity
  8
\U+56FE\U+5C42 1
 62
     7
420
 16777215
370
    70
100
AcDbVertex
100
AcDb2dVertex
 10
45.99994844770141
 20
5.379861109766146
 30
0.0
  0
SEQEND
  5
D7
330
D4
100
AcDbEntity
  8
\U+56FE\U+5C42 1
370
    70
  0
POLYLINE
  5
D8
330
1F
100
AcDbEntity
  8
\U+56FE\U+5C42 1
 62
     7
420
 16777215
370
    70
100
AcDb2dPolyline
 66
     1
 10
0.0
 20
0.0
 30
0.0
  0
VERTEX
  5
D9
330
D8
100
AcDbEntity
  8
\U+56FE\U+5C42 1
 62
     7
420
 16777215
370
    70
100
AcDbVertex
100
AcDb2dVertex
 10
45.99994844770141
 20
5.379861109766146
 30
0.0
  0
VERTEX
  5
DA
330
D8
100
AcDbEntity
  8
\U+56FE\U+5C42 1
 62
     7
420
 16777215
370
    70
100
AcDbVertex
100
AcDb2dVertex
 10
373.9999103882708
 20
5.379861109766146
 30
0.0
  0
SEQEND
  5
DB
330
D8
100
AcDbEntity
  8
\U+56FE\U+5C42 1
370
    70
  0
POLYLINE
  5
DC
330
1F
100
AcDbEntity
  8
\U+56FE\U+5C42 1
 62
     7
420
 16777215
370
    70
100
AcDb2dPolyline
 66
     1
 10
0.0
 20
0.0
 30
0.0
  0
VERTEX
  5
DD
330
DC
100
AcDbEntity
  8
\U+56FE\U+5C42 1
 62
     7
420
 16777215
370
    70
100
AcDbVertex
100
AcDb2dVertex
 10
373.6144042034714
 20
234.9799722719842
 30
0.0
  0
VERTEX
  5
DE
330
DC
100
AcDbEntity
  8
\U+56FE\U+5C42 1
 62
     7
420
 16777215
370
    70
100
AcDbVertex
100
AcDb2dVertex
 10
45.61444226290195
 20
234.9799722719842
 30
0.0
  0
SEQEND
  5
DF
330
DC
100
AcDbEntity
  8
\U+56FE\U+5C42 1
370
    70
  0
POLYLINE
  5
E0
330
1F
100
AcDbEntity
  8
\U+56FE\U+5C42 1
 62
     7
420
 16777215
370
    70
100
AcDb2dPolyline
 66
     1
 10
0.0
 20
0.0
 30
0.0
  0
VERTEX
  5
E1
330
E0
100
AcDbEntity
  8
\U+56FE\U+5C42 1
 62
     7
420
 16777215
370
    70
100
AcDbVertex
100
AcDb2dVertex
 10
373.6144042034714
 20
5.379861109766146
 30
0.0
  0
VERTEX
  5
E2
330
E0
100
AcDbEntity
  8
\U+56FE\U+5C42 1
 62
     7
420
 16777215
370
    70
100
AcDbVertex
100
AcDb2dVertex
 10
373.6144042034714
 20
234.9799722719842
 30
0.0
  0
SEQEND
  5
E3
330
E0
100
AcDbEntity
  8
\U+56FE\U+5C42 1
370
    70
  0
POLYLINE
  5
E4
330
1F
100
AcDbEntity
  8
\U+56FE\U+5C42 1
 62
     7
420
 16777215
370
    35
100
AcDb2dPolyline
 66
     1
 10
0.0
 20
0.0
 30
0.0
  0
VERTEX
  5
E5
330
E4
100
AcDbEntity
  8
\U+56FE\U+5C42 1
 62
     7
420
 16777215
370
    35
100
AcDbVertex
100
AcDb2dVertex
 10
191.9953436477477
 20
159.8629380568225
 30
0.0
  0
VERTEX
  5
E6
330
E4
100
AcDbEntity
  8
\U+56FE\U+5C42 1
 62
     7
420
 16777215
370
    35
100
AcDbVertex
100
AcDb2dVertex
 10
192.4018649150072
 20
160.3710896408968
 30
0.0
  0
VERTEX
  5
E7
330
E4
100
AcDbEntity
  8
\U+56FE\U+5C42 1
 62
     7
420
 16777215
370
    35
100
AcDbVertex
100
AcDb2dVertex
 10
192.4018649150072
 20
157.323041410322
 30
0.0
  0
SEQEND
  5
E8
330
E4
100
AcDbEntity
  8
\U+56FE\U+5C42 1
370
    35
  0
POLYLINE
  5
E9
330
1F
100
AcDbEntity
  8
\U+56FE\U+5C42 1
 62
     7
420
 16777215
370
    35
100
AcDb2dPolyline
 66
     1
 10
0.0
 20
0.0
 30
0.0
  0
VERTEX
  5
EA
330
E9
100
AcDbEntity
  8
\U+56FE\U+5C42 1
 62
     7
420
 16777215
370
    35
100
AcDbVertex
100
AcDb2dVertex
 10
191.9953436477477
 20
157.323041410322
 30
0.0
  0
VERTEX
  5
EB
330
E9
100
AcDbEntity
  8
\U+56FE\U+5C42 1
 62
     7
420
 16777215
370
    35
100
AcDbVertex
100
AcDb2dVertex
 10
192.8080416727181
 20
157.323041410322
 30
0.0
  0
SEQEND
  5
EC
330
E9
100
AcDbEntity
  8
\U+56FE\U+5C42 1
370
    35
  0
POLYLINE
  5
ED
330
1F
100
AcDbEntity
  8
\U+56FE\U+5C42 1
 62
     7
420
 16777215
370
    35
100
AcDb2dPolyline
 66
     1
 10
0.0
 20
0.0
 30
0.0
  0
VERTEX
  5
EE
330
ED
100
AcDbEntity
  8
\U+56FE\U+5C42 1
 62
     7
420
 16777215
370
    35
100
AcDbVertex
100
AcDb2dVertex
 10
193.6207396976886
 20
159.8629380568225
 30
0.0
  0
VERTEX
  5
EF
330
ED
100
AcDbEntity
  8
\U+56FE\U+5C42 1
 62
     7
420
 16777215
370
    35
100
AcDbVertex
100
AcDb2dVertex
 10
194.0276054744966
 20
160.3710896408968
 30
0.0
  0
VERTEX
  5
F0
330
ED
100
AcDbEntity
  8
\U+56FE\U+5C42 1
 62
     7
420
 16777215
370
    35
100
AcDbVertex
100
AcDb2dVertex
 10
194.0276054744966
 20
157.323041410322
 30
0.0
  0
SEQEND
  5
F1
330
ED
100
AcDbEntity
  8
\U+56FE\U+5C42 1
370
    35
  0
POLYLINE
  5
F2
330
1F
100
AcDbEntity
  8
\U+56FE\U+5C42 1
 62
     7
420
 16777215
370
    35
100
AcDb2dPolyline
 66
     1
 10
0.0
 20
0.0
 30
0.0
  0
VERTEX
  5
F3
330
F2
100
AcDbEntity
  8
\U+56FE\U+5C42 1
 62
     7
420
 16777215
370
    35
100
AcDbVertex
100
AcDb2dVertex
 10
193.6207396976886
 20
157.323041410322
 30
0.0
  0
VERTEX
  5
F4
330
F2
100
AcDbEntity
  8
\U+56FE\U+5C42 1
 62
     7
420
 16777215
370
    35
100
AcDbVertex
100
AcDb2dVertex
 10
194.5350680394739
 20
157.323041410322
 30
0.0
  0
SEQEND
  5
F5
330
F2
100
AcDbEntity
  8
\U+56FE\U+5C42 1
370
    35
  0
POLYLINE
  5
F6
330
1F
100
AcDbEntity
  8
\U+56FE\U+5C42 1
 62
     7
420
 16777215
370
    35
100
AcDb2dPolyline
 66
     1
 10
0.0
 20
0.0
 30
0.0
  0
VERTEX
  5
F7
330
F6
100
AcDbEntity
  8
\U+56FE\U+5C42 1
 62
     7
420
 16777215
370
    35
100
AcDbVertex
100
AcDb2dVertex
 10
195.7546318412523
 20
157.323041410322
 30
0.0
  0
VERTEX
  5
F8
330
F6
100
AcDbEntity
  8
\U+56FE\U+5C42 1
 62
     7
420
 16777215
370
    35
100
AcDbVertex
100
AcDb2dVertex
 10
196.1608085989633
 20
157.323041410322
 30
0.0
  0
VERTEX
  5
F9
330
F6
100
AcDbEntity
  8
\U+56FE\U+5C42 1
 62
     7
420
 16777215
370
    35
100
AcDbVertex
100
AcDb2dVertex
 10
197.0751369407486
 20
158.3386555593737
 30
0.0
  0
VERTEX
  5
FA
330
F6
100
AcDbEntity
  8
\U+56FE\U+5C42 1
 62
     7
420
 16777215
370
    35
100
AcDbVertex
100
AcDb2dVertex
 10
197.0751369407486
 20
159.8629380568225
 30
0.0
  0
VERTEX
  5
FB
330
F6
100
AcDbEntity
  8
\U+56FE\U+5C42 1
 62
     7
420
 16777215
370
    35
100
AcDbVertex
100
AcDb2dVertex
 10
196.5676743757713
 20
160.3710896408968
 30
0.0
  0
VERTEX
  5
FC
330
F6
100
AcDbEntity
  8
\U+56FE\U+5C42 1
 62
     7
420
 16777215
370
    35
100
AcDbVertex
100
AcDb2dVertex
 10
195.7546318412523
 20
160.3710896408968
 30
0.0
  0
VERTEX
  5
FD
330
F6
100
AcDbEntity
  8
\U+56FE\U+5C42 1
 62
     7
420
 16777215
370
    35
100
AcDbVertex
100
AcDb2dVertex
 10
195.3481105739928
 20
159.8629380568225
 30
0.0
  0
VERTEX
  5
FE
330
F6
100
AcDbEntity
  8
\U+56FE\U+5C42 1
 62
     7
420
 16777215
370
    35
100
AcDbVertex
100
AcDb2dVertex
 10
195.3481105739928
 20
159.3549587275224
 30
0.0
  0
VERTEX
  5
FF
330
F6
100
AcDbEntity
  8
\U+56FE\U+5C42 1
 62
     7
420
 16777215
370
    35
100
AcDbVertex
100
AcDb2dVertex
 10
195.7546318412523
 20
158.846807143448
 30
0.0
  0
VERTEX
  5
100
330
F6
100
AcDbEntity
  8
\U+56FE\U+5C42 1
 62
     7
420
 16777215
370
    35
100
AcDbVertex
100
AcDb2dVertex
 10
197.0751369407486
 20
158.846807143448
 30
0.0
  0
SEQEND
  5
101
330
F6
100
AcDbEntity
  8
\U+56FE\U+5C42 1
370
    35
  0
POLYLINE
  5
102
330
1F
100
AcDbEntity
  8
\U+56FE\U+5C42 1
 62
     7
420
 16777215
370
    35
100
AcDb2dPolyline
 66
     1
 10
0.0
 20
0.0
 30
0.0
  0
VERTEX
  5
103
330
102
100
AcDbEntity
  8
\U+56FE\U+5C42 1
 62
     7
420
 16777215
370
    35
100
AcDbVertex
100
AcDb2dVertex
 10
198.294700742527
 20
157.323041410322
 30
0.0
  0
VERTEX
  5
104
330
102
100
AcDbEntity
  8
\U+56FE\U+5C42 1
 62
     7
420
 16777215
370
    35
100
AcDbVertex
100
AcDb2dVertex
 10
197.887834965719
 20
157.8310207396221
 30
0.0
  0
VERTEX
  5
105
330
102
100
AcDbEntity
  8
\U+56FE\U+5C42 1
 62
     7
420
 16777215
370
    35
100
AcDbVertex
100
AcDb2dVertex
 10
197.887834965719
 20
158.3386555593737
 30
0.0
  0
VERTEX
  5
106
330
102
100
AcDbEntity
  8
\U+56FE\U+5C42 1
 62
     7
420
 16777215
370
    35
100
AcDbVertex
100
AcDb2dVertex
 10
198.294700742527
 20
158.846807143448
 30
0.0
  0
VERTEX
  5
107
330
102
100
AcDbEntity
  8
\U+56FE\U+5C42 1
 62
     7
420
 16777215
370
    35
100
AcDbVertex
100
AcDb2dVertex
 10
199.1073987674975
 20
158.846807143448
 30
0.0
  0
VERTEX
  5
108
330
102
100
AcDbEntity
  8
\U+56FE\U+5C42 1
 62
     7
420
 16777215
370
    35
100
AcDbVertex
100
AcDb2dVertex
 10
199.5135755252084
 20
159.3549587275224
 30
0.0
  0
VERTEX
  5
109
330
102
100
AcDbEntity
  8
\U+56FE\U+5C42 1
 62
     7
420
 16777215
370
    35
100
AcDbVertex
100
AcDb2dVertex
 10
199.5135755252084
 20
159.8629380568225
 30
0.0
  0
VERTEX
  5
10A
330
102
100
AcDbEntity
  8
\U+56FE\U+5C42 1
 62
     7
420
 16777215
370
    35
100
AcDbVertex
100
AcDb2dVertex
 10
199.1073987674975
 20
160.3710896408968
 30
0.0
  0
VERTEX
  5
10B
330
102
100
AcDbEntity
  8
\U+56FE\U+5C42 1
 62
     7
420
 16777215
370
    35
100
AcDbVertex
100
AcDb2dVertex
 10
198.294700742527
 20
160.3710896408968
 30
0.0
  0
VERTEX
  5
10C
330
102
100
AcDbEntity
  8
\U+56FE\U+5C42 1
 62
     7
420
 16777215
370
    35
100
AcDbVertex
100
AcDb2dVertex
 10
197.887834965719
 20
159.8629380568225
 30
0.0
  0
VERTEX
  5
10D
330
102
100
AcDbEntity
  8
\U+56FE\U+5C42 1
 62
     7
420
 16777215
370
    35
100
AcDbVertex
100
AcDb2dVertex
 10
197.887834965719
 20
159.3549587275224
 30
0.0
  0
VERTEX
  5
10E
330
102
100
AcDbEntity
  8
\U+56FE\U+5C42 1
 62
     7
420
 16777215
370
    35
100
AcDbVertex
100
AcDb2dVertex
 10
198.294700742527
 20
158.846807143448
 30
0.0
  0
SEQEND
  5
10F
330
102
100
AcDbEntity
  8
\U+56FE\U+5C42 1
370
    35
  0
POLYLINE
  5
110
330
1F
100
AcDbEntity
  8
\U+56FE\U+5C42 1
 62
     7
420
 16777215
370
    35
100
AcDb2dPolyline
 66
     1
 10
0.0
 20
0.0
 30
0.0
  0
VERTEX
  5
111
330
110
100
AcDbEntity
  8
\U+56FE\U+5C42 1
 62
     7
420
 16777215
370
    35
100
AcDbVertex
100
AcDb2dVertex
 10
199.1073987674975
 20
158.846807143448
 30
0.0
  0
VERTEX
  5
112
330
110
100
AcDbEntity
  8
\U+56FE\U+5C42 1
 62
     7
420
 16777215
370
    35
100
AcDbVertex
100
AcDb2dVertex
 10
199.5135755252084
 20
158.3386555593737
 30
0.0
  0
VERTEX
  5
113
330
110
100
AcDbEntity
  8
\U+56FE\U+5C42 1
 62
     7
420
 16777215
370
    35
100
AcDbVertex
100
AcDb2dVertex
 10
199.5135755252084
 20
157.8310207396221
 30
0.0
  0
VERTEX
  5
114
330
110
100
AcDbEntity
  8
\U+56FE\U+5C42 1
 62
     7
420
 16777215
370
    35
100
AcDbVertex
100
AcDb2dVertex
 10
199.1073987674975
 20
157.323041410322
 30
0.0
  0
VERTEX
  5
115
330
110
100
AcDbEntity
  8
\U+56FE\U+5C42 1
 62
     7
420
 16777215
370
    35
100
AcDbVertex
100
AcDb2dVertex
 10
198.294700742527
 20
157.323041410322
 30
0.0
  0
SEQEND
  5
116
330
110
100
AcDbEntity
  8
\U+56FE\U+5C42 1
370
    35
  0
POLYLINE
  5
117
330
1F
100
AcDbEntity
  8
\U+56FE\U+5C42 1
 62
     7
420
 16777215
370
    35
100
AcDb2dPolyline
 66
     1
 10
0.0
 20
0.0
 30
0.0
  0
VERTEX
  5
118
330
117
100
AcDbEntity
  8
\U+56FE\U+5C42 1
 62
     7
420
 16777215
370
    35
100
AcDbVertex
100
AcDb2dVertex
 10
83.79126788269802
 20
158.846807143448
 30
0.0
  0
VERTEX
  5
119
330
117
100
AcDbEntity
  8
\U+56FE\U+5C42 1
 62
     7
420
 16777215
370
    35
100
AcDbVertex
100
AcDb2dVertex
 10
187.118466478828
 20
158.846807143448
 30
0.0
  0
SEQEND
  5
11A
330
117
100
AcDbEntity
  8
\U+56FE\U+5C42 1
370
    35
  0
POLYLINE
  5
11B
330
1F
100
AcDbEntity
  8
\U+56FE\U+5C42 1
 62
     7
420
 16777215
370
    35
100
AcDb2dPolyline
 66
     1
 10
0.0
 20
0.0
 30
0.0
  0
VERTEX
  5
11C
330
11B
100
AcDbEntity
  8
\U+56FE\U+5C42 1
 62
     7
420
 16777215
370
    35
100
AcDbVertex
100
AcDb2dVertex
 10
307.7179957998066
 20
158.846807143448
 30
0.0
  0
VERTEX
  5
11D
330
11B
100
AcDbEntity
  8
\U+56FE\U+5C42 1
 62
     7
420
 16777215
370
    35
100
AcDbVertex
100
AcDb2dVertex
 10
204.3901081845796
 20
158.846807143448
 30
0.0
  0
SEQEND
  5
11E
330
11B
100
AcDbEntity
  8
\U+56FE\U+5C42 1
370
    35
  0
POLYLINE
  5
11F
330
1F
100
AcDbEntity
  8
\U+56FE\U+5C42 1
 62
     7
420
 16777215
370
    35
100
AcDb2dPolyline
 66
     1
 10
0.0
 20
0.0
 30
0.0
  0
VERTEX
  5
120
330
11F
100
AcDbEntity
  8
\U+56FE\U+5C42 1
 62
     7
420
 16777215
370
    35
100
AcDbVertex
100
AcDb2dVertex
 10
83.79126788269802
 20
138.0187933682731
 30
0.0
  0
VERTEX
  5
121
330
11F
100
AcDbEntity
  8
\U+56FE\U+5C42 1
 62
     7
420
 16777215
370
    35
100
AcDbVertex
100
AcDb2dVertex
 10
83.79126788269802
 20
160.1676567524928
 30
0.0
  0
SEQEND
  5
122
330
11F
100
AcDbEntity
  8
\U+56FE\U+5C42 1
370
    35
  0
POLYLINE
  5
123
330
1F
100
AcDbEntity
  8
\U+56FE\U+5C42 1
 62
     7
420
 16777215
370
    35
100
AcDb2dPolyline
 66
     1
 10
0.0
 20
0.0
 30
0.0
  0
VERTEX
  5
124
330
123
100
AcDbEntity
  8
\U+56FE\U+5C42 1
 62
     7
420
 16777215
370
    35
100
AcDbVertex
100
AcDb2dVertex
 10
307.7179957998066
 20
138.0187933682731
 30
0.0
  0
VERTEX
  5
125
330
123
100
AcDbEntity
  8
\U+56FE\U+5C42 1
 62
     7
420
 16777215
370
    35
100
AcDbVertex
100
AcDb2dVertex
 10
307.7179957998066
 20
160.1676567524928
 30
0.0
  0
SEQEND
  5
126
330
123
100
AcDbEntity
  8
\U+56FE\U+5C42 1
370
    35
  0
POLYLINE
  5
127
330
1F
100
AcDbEntity
  8
\U+56FE\U+5C42 1
370
     0
100
AcDb2dPolyline
 66
     1
 10
0.0
 20
0.0
 30
0.0
  0
VERTEX
  5
128
330
127
100
AcDbEntity
  8
\U+56FE\U+5C42 1
370
     0
100
AcDbVertex
100
AcDb2dVertex
 10
307.7179957998066
 20
158.846807143448
 30
0.0
  0
VERTEX
  5
129
330
127
100
AcDbEntity
  8
\U+56FE\U+5C42 1
370
     0
100
AcDbVertex
100
AcDb2dVertex
 10
304.7710611217239
 20
159.2531561559333
 30
0.0
  0
VERTEX
  5
12A
330
127
100
AcDbEntity
  8
\U+56FE\U+5C42 1
370
     0
100
AcDbVertex
100
AcDb2dVertex
 10
304.7710611217239
 20
158.4404581309628
 30
0.0
  0
VERTEX
  5
12B
330
127
100
AcDbEntity
  8
\U+56FE\U+5C42 1
370
     0
100
AcDbVertex
100
AcDb2dVertex
 10
307.7179957998066
 20
158.846807143448
 30
0.0
  0
SEQEND
  5
12C
330
127
100
AcDbEntity
  8
\U+56FE\U+5C42 1
370
     0
  0
HATCH
  5
12D
330
1F
100
AcDbEntity
  8
\U+56FE\U+5C42 1
 62
     7
420
 16777215
100
AcDbHatch
 10
0.0
 20
0.0
 30
0.0
210
0.0
220
0.0
230
1.0
  2
SOLID
 70
     1
 71
     0
 91
        1
 92
        1
 93
        3
 72
     1
 10
307.7179957998066
 20
158.846807143448
 11
304.7710611217239
 21
159.2531561559333
 72
     1
 10
304.7710611217239
 20
159.2531561559333
 11
304.7710611217239
 21
158.4404581309628
 72
     1
 10
304.7710611217239
 20
158.4404581309628
 11
307.7179957998066
 21
158.846807143448
 97
        0
 75
     0
 76
     1
 98
        0
  0
POLYLINE
  5
12E
330
1F
100
AcDbEntity
  8
\U+56FE\U+5C42 1
370
     0
100
AcDb2dPolyline
 66
     1
 10
0.0
 20
0.0
 30
0.0
  0
VERTEX
  5
12F
330
12E
100
AcDbEntity
  8
\U+56FE\U+5C42 1
370
     0
100
AcDbVertex
100
AcDb2dVertex
 10
83.79126788269802
 20
158.846807143448
 30
0.0
  0
VERTEX
  5
130
330
12E
100
AcDbEntity
  8
\U+56FE\U+5C42 1
370
     0
100
AcDbVertex
100
AcDb2dVertex
 10
86.83914385849855
 20
158.4404581309628
 30
0.0
  0
VERTEX
  5
131
330
12E
100
AcDbEntity
  8
\U+56FE\U+5C42 1
370
     0
100
AcDbVertex
100
AcDb2dVertex
 10
86.83914385849855
 20
159.2531561559333
 30
0.0
  0
VERTEX
  5
132
330
12E
100
AcDbEntity
  8
\U+56FE\U+5C42 1
370
     0
100
AcDbVertex
100
AcDb2dVertex
 10
83.79126788269802
 20
158.846807143448
 30
0.0
  0
SEQEND
  5
133
330
12E
100
AcDbEntity
  8
\U+56FE\U+5C42 1
370
     0
  0
HATCH
  5
134
330
1F
100
AcDbEntity
  8
\U+56FE\U+5C42 1
 62
     7
420
 16777215
100
AcDbHatch
 10
0.0
 20
0.0
 30
0.0
210
0.0
220
0.0
230
1.0
  2
SOLID
 70
     1
 71
     0
 91
        1
 92
        1
 93
        3
 72
     1
 10
83.79126788269802
 20
158.846807143448
 11
86.83914385849855
 21
158.4404581309628
 72
     1
 10
86.83914385849855
 20
158.4404581309628
 11
86.83914385849855
 21
159.2531561559333
 72
     1
 10
86.83914385849855
 20
159.2531561559333
 11
83.79126788269802
 21
158.846807143448
 97
        0
 75
     0
 76
     1
 98
        0
  0
POLYLINE
  5
135
330
1F
100
AcDbEntity
  8
\U+56FE\U+5C42 1
 62
     7
420
 16777215
370
    35
100
AcDb2dPolyline
 66
     1
 10
0.0
 20
0.0
 30
0.0
  0
VERTEX
  5
136
330
135
100
AcDbEntity
  8
\U+56FE\U+5C42 1
 62
     7
420
 16777215
370
    35
100
AcDbVertex
100
AcDb2dVertex
 10
191.9953436477477
 20
147.1631103147717
 30
0.0
  0
VERTEX
  5
137
330
135
100
AcDbEntity
  8
\U+56FE\U+5C42 1
 62
     7
420
 16777215
370
    35
100
AcDbVertex
100
AcDb2dVertex
 10
192.4018649150072
 20
147.6712618988461
 30
0.0
  0
VERTEX
  5
138
330
135
100
AcDbEntity
  8
\U+56FE\U+5C42 1
 62
     7
420
 16777215
370
    35
100
AcDbVertex
100
AcDb2dVertex
 10
192.4018649150072
 20
144.7246717303119
 30
0.0
  0
SEQEND
  5
139
330
135
100
AcDbEntity
  8
\U+56FE\U+5C42 1
370
    35
  0
POLYLINE
  5
13A
330
1F
100
AcDbEntity
  8
\U+56FE\U+5C42 1
 62
     7
420
 16777215
370
    35
100
AcDb2dPolyline
 66
     1
 10
0.0
 20
0.0
 30
0.0
  0
VERTEX
  5
13B
330
13A
100
AcDbEntity
  8
\U+56FE\U+5C42 1
 62
     7
420
 16777215
370
    35
100
AcDbVertex
100
AcDb2dVertex
 10
191.9953436477477
 20
144.7246717303119
 30
0.0
  0
VERTEX
  5
13C
330
13A
100
AcDbEntity
  8
\U+56FE\U+5C42 1
 62
     7
420
 16777215
370
    35
100
AcDbVertex
100
AcDb2dVertex
 10
192.8080416727181
 20
144.7246717303119
 30
0.0
  0
SEQEND
  5
13D
330
13A
100
AcDbEntity
  8
\U+56FE\U+5C42 1
370
    35
  0
POLYLINE
  5
13E
330
1F
100
AcDbEntity
  8
\U+56FE\U+5C42 1
 62
     7
420
 16777215
370
    35
100
AcDb2dPolyline
 66
     1
 10
0.0
 20
0.0
 30
0.0
  0
VERTEX
  5
13F
330
13E
100
AcDbEntity
  8
\U+56FE\U+5C42 1
 62
     7
420
 16777215
370
    35
100
AcDbVertex
100
AcDb2dVertex
 10
193.6207396976886
 20
147.1631103147717
 30
0.0
  0
VERTEX
  5
140
330
13E
100
AcDbEntity
  8
\U+56FE\U+5C42 1
 62
     7
420
 16777215
370
    35
100
AcDbVertex
100
AcDb2dVertex
 10
194.0276054744966
 20
147.6712618988461
 30
0.0
  0
VERTEX
  5
141
330
13E
100
AcDbEntity
  8
\U+56FE\U+5C42 1
 62
     7
420
 16777215
370
    35
100
AcDbVertex
100
AcDb2dVertex
 10
194.0276054744966
 20
144.7246717303119
 30
0.0
  0
SEQEND
  5
142
330
13E
100
AcDbEntity
  8
\U+56FE\U+5C42 1
370
    35
  0
POLYLINE
  5
143
330
1F
100
AcDbEntity
  8
\U+56FE\U+5C42 1
 62
     7
420
 16777215
370
    35
100
AcDb2dPolyline
 66
     1
 10
0.0
 20
0.0
 30
0.0
  0
VERTEX
  5
144
330
143
100
AcDbEntity
  8
\U+56FE\U+5C42 1
 62
     7
420
 16777215
370
    35
100
AcDbVertex
100
AcDb2dVertex
 10
193.6207396976886
 20
144.7246717303119
 30
0.0
  0
VERTEX
  5
145
330
143
100
AcDbEntity
  8
\U+56FE\U+5C42 1
 62
     7
420
 16777215
370
    35
100
AcDbVertex
100
AcDb2dVertex
 10
194.5350680394739
 20
144.7246717303119
 30
0.0
  0
SEQEND
  5
146
330
143
100
AcDbEntity
  8
\U+56FE\U+5C42 1
370
    35
  0
POLYLINE
  5
147
330
1F
100
AcDbEntity
  8
\U+56FE\U+5C42 1
 62
     7
420
 16777215
370
    35
100
AcDb2dPolyline
 66
     1
 10
0.0
 20
0.0
 30
0.0
  0
VERTEX
  5
148
330
147
100
AcDbEntity
  8
\U+56FE\U+5C42 1
 62
     7
420
 16777215
370
    35
100
AcDbVertex
100
AcDb2dVertex
 10
195.3481105739928
 20
147.6712618988461
 30
0.0
  0
VERTEX
  5
149
330
147
100
AcDbEntity
  8
\U+56FE\U+5C42 1
 62
     7
420
 16777215
370
    35
100
AcDbVertex
100
AcDb2dVertex
 10
197.0751369407486
 20
147.6712618988461
 30
0.0
  0
VERTEX
  5
14A
330
147
100
AcDbEntity
  8
\U+56FE\U+5C42 1
 62
     7
420
 16777215
370
    35
100
AcDbVertex
100
AcDb2dVertex
 10
195.7546318412523
 20
144.7246717303119
 30
0.0
  0
SEQEND
  5
14B
330
147
100
AcDbEntity
  8
\U+56FE\U+5C42 1
370
    35
  0
POLYLINE
  5
14C
330
1F
100
AcDbEntity
  8
\U+56FE\U+5C42 1
 62
     7
420
 16777215
370
    35
100
AcDb2dPolyline
 66
     1
 10
0.0
 20
0.0
 30
0.0
  0
VERTEX
  5
14D
330
14C
100
AcDbEntity
  8
\U+56FE\U+5C42 1
 62
     7
420
 16777215
370
    35
100
AcDbVertex
100
AcDb2dVertex
 10
198.294700742527
 20
144.7246717303119
 30
0.0
  0
VERTEX
  5
14E
330
14C
100
AcDbEntity
  8
\U+56FE\U+5C42 1
 62
     7
420
 16777215
370
    35
100
AcDbVertex
100
AcDb2dVertex
 10
197.887834965719
 20
145.2324788048377
 30
0.0
  0
VERTEX
  5
14F
330
14C
100
AcDbEntity
  8
\U+56FE\U+5C42 1
 62
     7
420
 16777215
370
    35
100
AcDbVertex
100
AcDb2dVertex
 10
197.887834965719
 20
145.7402858793635
 30
0.0
  0
VERTEX
  5
150
330
14C
100
AcDbEntity
  8
\U+56FE\U+5C42 1
 62
     7
420
 16777215
370
    35
100
AcDbVertex
100
AcDb2dVertex
 10
198.294700742527
 20
146.2484374634379
 30
0.0
  0
VERTEX
  5
151
330
14C
100
AcDbEntity
  8
\U+56FE\U+5C42 1
 62
     7
420
 16777215
370
    35
100
AcDbVertex
100
AcDb2dVertex
 10
199.1073987674975
 20
146.2484374634379
 30
0.0
  0
VERTEX
  5
152
330
14C
100
AcDbEntity
  8
\U+56FE\U+5C42 1
 62
     7
420
 16777215
370
    35
100
AcDbVertex
100
AcDb2dVertex
 10
199.5135755252084
 20
146.7565890475123
 30
0.0
  0
VERTEX
  5
153
330
14C
100
AcDbEntity
  8
\U+56FE\U+5C42 1
 62
     7
420
 16777215
370
    35
100
AcDbVertex
100
AcDb2dVertex
 10
199.5135755252084
 20
147.1631103147717
 30
0.0
  0
VERTEX
  5
154
330
14C
100
AcDbEntity
  8
\U+56FE\U+5C42 1
 62
     7
420
 16777215
370
    35
100
AcDbVertex
100
AcDb2dVertex
 10
199.1073987674975
 20
147.6712618988461
 30
0.0
  0
VERTEX
  5
155
330
14C
100
AcDbEntity
  8
\U+56FE\U+5C42 1
 62
     7
420
 16777215
370
    35
100
AcDbVertex
100
AcDb2dVertex
 10
198.294700742527
 20
147.6712618988461
 30
0.0
  0
VERTEX
  5
156
330
14C
100
AcDbEntity
  8
\U+56FE\U+5C42 1
 62
     7
420
 16777215
370
    35
100
AcDbVertex
100
AcDb2dVertex
 10
197.887834965719
 20
147.1631103147717
 30
0.0
  0
VERTEX
  5
157
330
14C
100
AcDbEntity
  8
\U+56FE\U+5C42 1
 62
     7
420
 16777215
370
    35
100
AcDbVertex
100
AcDb2dVertex
 10
197.887834965719
 20
146.7565890475123
 30
0.0
  0
VERTEX
  5
158
330
14C
100
AcDbEntity
  8
\U+56FE\U+5C42 1
 62
     7
420
 16777215
370
    35
100
AcDbVertex
100
AcDb2dVertex
 10
198.294700742527
 20
146.2484374634379
 30
0.0
  0
SEQEND
  5
159
330
14C
100
AcDbEntity
  8
\U+56FE\U+5C42 1
370
    35
  0
POLYLINE
  5
15A
330
1F
100
AcDbEntity
  8
\U+56FE\U+5C42 1
 62
     7
420
 16777215
370
    35
100
AcDb2dPolyline
 66
     1
 10
0.0
 20
0.0
 30
0.0
  0
VERTEX
  5
15B
330
15A
100
AcDbEntity
  8
\U+56FE\U+5C42 1
 62
     7
420
 16777215
370
    35
100
AcDbVertex
100
AcDb2dVertex
 10
199.1073987674975
 20
146.2484374634379
 30
0.0
  0
VERTEX
  5
15C
330
15A
100
AcDbEntity
  8
\U+56FE\U+5C42 1
 62
     7
420
 16777215
370
    35
100
AcDbVertex
100
AcDb2dVertex
 10
199.5135755252084
 20
145.7402858793635
 30
0.0
  0
VERTEX
  5
15D
330
15A
100
AcDbEntity
  8
\U+56FE\U+5C42 1
 62
     7
420
 16777215
370
    35
100
AcDbVertex
100
AcDb2dVertex
 10
199.5135755252084
 20
145.2324788048377
 30
0.0
  0
VERTEX
  5
15E
330
15A
100
AcDbEntity
  8
\U+56FE\U+5C42 1
 62
     7
420
 16777215
370
    35
100
AcDbVertex
100
AcDb2dVertex
 10
199.1073987674975
 20
144.7246717303119
 30
0.0
  0
VERTEX
  5
15F
330
15A
100
AcDbEntity
  8
\U+56FE\U+5C42 1
 62
     7
420
 16777215
370
    35
100
AcDbVertex
100
AcDb2dVertex
 10
198.294700742527
 20
144.7246717303119
 30
0.0
  0
SEQEND
  5
160
330
15A
100
AcDbEntity
  8
\U+56FE\U+5C42 1
370
    35
  0
POLYLINE
  5
161
330
1F
100
AcDbEntity
  8
\U+56FE\U+5C42 1
 62
     7
420
 16777215
370
    35
100
AcDb2dPolyline
 66
     1
 10
0.0
 20
0.0
 30
0.0
  0
VERTEX
  5
162
330
161
100
AcDbEntity
  8
\U+56FE\U+5C42 1
 62
     7
420
 16777215
370
    35
100
AcDbVertex
100
AcDb2dVertex
 10
88.05836315072847
 20
146.2484374634379
 30
0.0
  0
VERTEX
  5
163
330
161
100
AcDbEntity
  8
\U+56FE\U+5C42 1
 62
     7
420
 16777215
370
    35
100
AcDbVertex
100
AcDb2dVertex
 10
187.118466478828
 20
146.2484374634379
 30
0.0
  0
SEQEND
  5
164
330
161
100
AcDbEntity
  8
\U+56FE\U+5C42 1
370
    35
  0
POLYLINE
  5
165
330
1F
100
AcDbEntity
  8
\U+56FE\U+5C42 1
 62
     7
420
 16777215
370
    35
100
AcDb2dPolyline
 66
     1
 10
0.0
 20
0.0
 30
0.0
  0
VERTEX
  5
166
330
165
100
AcDbEntity
  8
\U+56FE\U+5C42 1
 62
     7
420
 16777215
370
    35
100
AcDbVertex
100
AcDb2dVertex
 10
303.4502115126791
 20
146.2484374634379
 30
0.0
  0
VERTEX
  5
167
330
165
100
AcDbEntity
  8
\U+56FE\U+5C42 1
 62
     7
420
 16777215
370
    35
100
AcDbVertex
100
AcDb2dVertex
 10
204.3901081845796
 20
146.2484374634379
 30
0.0
  0
SEQEND
  5
168
330
165
100
AcDbEntity
  8
\U+56FE\U+5C42 1
370
    35
  0
POLYLINE
  5
169
330
1F
100
AcDbEntity
  8
\U+56FE\U+5C42 1
 62
     7
420
 16777215
370
    35
100
AcDb2dPolyline
 66
     1
 10
0.0
 20
0.0
 30
0.0
  0
VERTEX
  5
16A
330
169
100
AcDbEntity
  8
\U+56FE\U+5C42 1
 62
     7
420
 16777215
370
    35
100
AcDbVertex
100
AcDb2dVertex
 10
88.05836315072847
 20
138.2220540019028
 30
0.0
  0
VERTEX
  5
16B
330
169
100
AcDbEntity
  8
\U+56FE\U+5C42 1
 62
     7
420
 16777215
370
    35
100
AcDbVertex
100
AcDb2dVertex
 10
88.05836315072847
 20
147.4676567556678
 30
0.0
  0
SEQEND
  5
16C
330
169
100
AcDbEntity
  8
\U+56FE\U+5C42 1
370
    35
  0
POLYLINE
  5
16D
330
1F
100
AcDbEntity
  8
\U+56FE\U+5C42 1
 62
     7
420
 16777215
370
    35
100
AcDb2dPolyline
 66
     1
 10
0.0
 20
0.0
 30
0.0
  0
VERTEX
  5
16E
330
16D
100
AcDbEntity
  8
\U+56FE\U+5C42 1
 62
     7
420
 16777215
370
    35
100
AcDbVertex
100
AcDb2dVertex
 10
303.4502115126791
 20
138.2220540019028
 30
0.0
  0
VERTEX
  5
16F
330
16D
100
AcDbEntity
  8
\U+56FE\U+5C42 1
 62
     7
420
 16777215
370
    35
100
AcDbVertex
100
AcDb2dVertex
 10
303.4502115126791
 20
147.4676567556678
 30
0.0
  0
SEQEND
  5
170
330
16D
100
AcDbEntity
  8
\U+56FE\U+5C42 1
370
    35
  0
POLYLINE
  5
171
330
1F
100
AcDbEntity
  8
\U+56FE\U+5C42 1
370
     0
100
AcDb2dPolyline
 66
     1
 10
0.0
 20
0.0
 30
0.0
  0
VERTEX
  5
172
330
171
100
AcDbEntity
  8
\U+56FE\U+5C42 1
370
     0
100
AcDbVertex
100
AcDb2dVertex
 10
303.4502115126791
 20
146.2484374634379
 30
0.0
  0
VERTEX
  5
173
330
171
100
AcDbEntity
  8
\U+56FE\U+5C42 1
370
     0
100
AcDbVertex
100
AcDb2dVertex
 10
300.5039658536934
 20
146.6549587306974
 30
0.0
  0
VERTEX
  5
174
330
171
100
AcDbEntity
  8
\U+56FE\U+5C42 1
370
     0
100
AcDbVertex
100
AcDb2dVertex
 10
300.5039658536934
 20
145.7402858793635
 30
0.0
  0
VERTEX
  5
175
330
171
100
AcDbEntity
  8
\U+56FE\U+5C42 1
370
     0
100
AcDbVertex
100
AcDb2dVertex
 10
303.4502115126791
 20
146.2484374634379
 30
0.0
  0
SEQEND
  5
176
330
171
100
AcDbEntity
  8
\U+56FE\U+5C42 1
370
     0
  0
HATCH
  5
177
330
1F
100
AcDbEntity
  8
\U+56FE\U+5C42 1
 62
     7
420
 16777215
100
AcDbHatch
 10
0.0
 20
0.0
 30
0.0
210
0.0
220
0.0
230
1.0
  2
SOLID
 70
     1
 71
     0
 91
        1
 92
        1
 93
        3
 72
     1
 10
303.4502115126791
 20
146.2484374634379
 11
300.5039658536934
 21
146.6549587306974
 72
     1
 10
300.5039658536934
 20
146.6549587306974
 11
300.5039658536934
 21
145.7402858793635
 72
     1
 10
300.5039658536934
 20
145.7402858793635
 11
303.4502115126791
 21
146.2484374634379
 97
        0
 75
     0
 76
     1
 98
        0
  0
POLYLINE
  5
178
330
1F
100
AcDbEntity
  8
\U+56FE\U+5C42 1
370
     0
100
AcDb2dPolyline
 66
     1
 10
0.0
 20
0.0
 30
0.0
  0
VERTEX
  5
179
330
178
100
AcDbEntity
  8
\U+56FE\U+5C42 1
370
     0
100
AcDbVertex
100
AcDb2dVertex
 10
88.05836315072847
 20
146.2484374634379
 30
0.0
  0
VERTEX
  5
17A
330
178
100
AcDbEntity
  8
\U+56FE\U+5C42 1
370
     0
100
AcDbVertex
100
AcDb2dVertex
 10
91.0047810644884
 20
145.7402858793635
 30
0.0
  0
VERTEX
  5
17B
330
178
100
AcDbEntity
  8
\U+56FE\U+5C42 1
370
     0
100
AcDbVertex
100
AcDb2dVertex
 10
91.0047810644884
 20
146.6549587306974
 30
0.0
  0
VERTEX
  5
17C
330
178
100
AcDbEntity
  8
\U+56FE\U+5C42 1
370
     0
100
AcDbVertex
100
AcDb2dVertex
 10
88.05836315072847
 20
146.2484374634379
 30
0.0
  0
SEQEND
  5
17D
330
178
100
AcDbEntity
  8
\U+56FE\U+5C42 1
370
     0
  0
HATCH
  5
17E
330
1F
100
AcDbEntity
  8
\U+56FE\U+5C42 1
 62
     7
420
 16777215
100
AcDbHatch
 10
0.0
 20
0.0
 30
0.0
210
0.0
220
0.0
230
1.0
  2
SOLID
 70
     1
 71
     0
 91
        1
 92
        1
 93
        3
 72
     1
 10
88.05836315072847
 20
146.2484374634379
 11
91.0047810644884
 21
145.7402858793635
 72
     1
 10
91.0047810644884
 20
145.7402858793635
 11
91.0047810644884
 21
146.6549587306974
 72
     1
 10
91.0047810644884
 20
146.6549587306974
 11
88.05836315072847
 21
146.2484374634379
 97
        0
 75
     0
 76
     1
 98
        0
  0
POLYLINE
  5
17F
330
1F
100
AcDbEntity
  8
\U+56FE\U+5C42 1
 62
     7
420
 16777215
370
    35
100
AcDb2dPolyline
 66
     1
 10
0.0
 20
0.0
 30
0.0
  0
VERTEX
  5
180
330
17F
100
AcDbEntity
  8
\U+56FE\U+5C42 1
 62
     7
420
 16777215
370
    35
100
AcDbVertex
100
AcDb2dVertex
 10
191.9953436477477
 20
172.5629380536475
 30
0.0
  0
VERTEX
  5
181
330
17F
100
AcDbEntity
  8
\U+56FE\U+5C42 1
 62
     7
420
 16777215
370
    35
100
AcDbVertex
100
AcDb2dVertex
 10
192.4018649150072
 20
173.0710896377218
 30
0.0
  0
VERTEX
  5
182
330
17F
100
AcDbEntity
  8
\U+56FE\U+5C42 1
 62
     7
420
 16777215
370
    35
100
AcDbVertex
100
AcDb2dVertex
 10
192.4018649150072
 20
170.023041407147
 30
0.0
  0
SEQEND
  5
183
330
17F
100
AcDbEntity
  8
\U+56FE\U+5C42 1
370
    35
  0
POLYLINE
  5
184
330
1F
100
AcDbEntity
  8
\U+56FE\U+5C42 1
 62
     7
420
 16777215
370
    35
100
AcDb2dPolyline
 66
     1
 10
0.0
 20
0.0
 30
0.0
  0
VERTEX
  5
185
330
184
100
AcDbEntity
  8
\U+56FE\U+5C42 1
 62
     7
420
 16777215
370
    35
100
AcDbVertex
100
AcDb2dVertex
 10
191.9953436477477
 20
170.023041407147
 30
0.0
  0
VERTEX
  5
186
330
184
100
AcDbEntity
  8
\U+56FE\U+5C42 1
 62
     7
420
 16777215
370
    35
100
AcDbVertex
100
AcDb2dVertex
 10
192.8080416727181
 20
170.023041407147
 30
0.0
  0
SEQEND
  5
187
330
184
100
AcDbEntity
  8
\U+56FE\U+5C42 1
370
    35
  0
POLYLINE
  5
188
330
1F
100
AcDbEntity
  8
\U+56FE\U+5C42 1
 62
     7
420
 16777215
370
    35
100
AcDb2dPolyline
 66
     1
 10
0.0
 20
0.0
 30
0.0
  0
VERTEX
  5
189
330
188
100
AcDbEntity
  8
\U+56FE\U+5C42 1
 62
     7
420
 16777215
370
    35
100
AcDbVertex
100
AcDb2dVertex
 10
193.6207396976886
 20
172.5629380536475
 30
0.0
  0
VERTEX
  5
18A
330
188
100
AcDbEntity
  8
\U+56FE\U+5C42 1
 62
     7
420
 16777215
370
    35
100
AcDbVertex
100
AcDb2dVertex
 10
194.0276054744966
 20
173.0710896377218
 30
0.0
  0
VERTEX
  5
18B
330
188
100
AcDbEntity
  8
\U+56FE\U+5C42 1
 62
     7
420
 16777215
370
    35
100
AcDbVertex
100
AcDb2dVertex
 10
194.9419338162819
 20
173.0710896377218
 30
0.0
  0
VERTEX
  5
18C
330
188
100
AcDbEntity
  8
\U+56FE\U+5C42 1
 62
     7
420
 16777215
370
    35
100
AcDbVertex
100
AcDb2dVertex
 10
195.3481105739928
 20
172.5629380536475
 30
0.0
  0
VERTEX
  5
18D
330
188
100
AcDbEntity
  8
\U+56FE\U+5C42 1
 62
     7
420
 16777215
370
    35
100
AcDbVertex
100
AcDb2dVertex
 10
195.3481105739928
 20
172.0549587243474
 30
0.0
  0
VERTEX
  5
18E
330
188
100
AcDbEntity
  8
\U+56FE\U+5C42 1
 62
     7
420
 16777215
370
    35
100
AcDbVertex
100
AcDb2dVertex
 10
194.9419338162819
 20
171.546807140273
 30
0.0
  0
VERTEX
  5
18F
330
188
100
AcDbEntity
  8
\U+56FE\U+5C42 1
 62
     7
420
 16777215
370
    35
100
AcDbVertex
100
AcDb2dVertex
 10
194.0276054744966
 20
171.546807140273
 30
0.0
  0
VERTEX
  5
190
330
188
100
AcDbEntity
  8
\U+56FE\U+5C42 1
 62
     7
420
 16777215
370
    35
100
AcDbVertex
100
AcDb2dVertex
 10
193.6207396976886
 20
171.0386555561987
 30
0.0
  0
VERTEX
  5
191
330
188
100
AcDbEntity
  8
\U+56FE\U+5C42 1
 62
     7
420
 16777215
370
    35
100
AcDbVertex
100
AcDb2dVertex
 10
193.6207396976886
 20
170.023041407147
 30
0.0
  0
VERTEX
  5
192
330
188
100
AcDbEntity
  8
\U+56FE\U+5C42 1
 62
     7
420
 16777215
370
    35
100
AcDbVertex
100
AcDb2dVertex
 10
195.3481105739928
 20
170.023041407147
 30
0.0
  0
SEQEND
  5
193
330
188
100
AcDbEntity
  8
\U+56FE\U+5C42 1
370
    35
  0
POLYLINE
  5
194
330
1F
100
AcDbEntity
  8
\U+56FE\U+5C42 1
 62
     7
420
 16777215
370
    35
100
AcDb2dPolyline
 66
     1
 10
0.0
 20
0.0
 30
0.0
  0
VERTEX
  5
195
330
194
100
AcDbEntity
  8
\U+56FE\U+5C42 1
 62
     7
420
 16777215
370
    35
100
AcDbVertex
100
AcDb2dVertex
 10
196.1608085989633
 20
172.5629380536475
 30
0.0
  0
VERTEX
  5
196
330
194
100
AcDbEntity
  8
\U+56FE\U+5C42 1
 62
     7
420
 16777215
370
    35
100
AcDbVertex
100
AcDb2dVertex
 10
196.5676743757713
 20
173.0710896377218
 30
0.0
  0
VERTEX
  5
197
330
194
100
AcDbEntity
  8
\U+56FE\U+5C42 1
 62
     7
420
 16777215
370
    35
100
AcDbVertex
100
AcDb2dVertex
 10
196.5676743757713
 20
170.023041407147
 30
0.0
  0
SEQEND
  5
198
330
194
100
AcDbEntity
  8
\U+56FE\U+5C42 1
370
    35
  0
POLYLINE
  5
199
330
1F
100
AcDbEntity
  8
\U+56FE\U+5C42 1
 62
     7
420
 16777215
370
    35
100
AcDb2dPolyline
 66
     1
 10
0.0
 20
0.0
 30
0.0
  0
VERTEX
  5
19A
330
199
100
AcDbEntity
  8
\U+56FE\U+5C42 1
 62
     7
420
 16777215
370
    35
100
AcDbVertex
100
AcDb2dVertex
 10
196.1608085989633
 20
170.023041407147
 30
0.0
  0
VERTEX
  5
19B
330
199
100
AcDbEntity
  8
\U+56FE\U+5C42 1
 62
     7
420
 16777215
370
    35
100
AcDbVertex
100
AcDb2dVertex
 10
197.0751369407486
 20
170.023041407147
 30
0.0
  0
SEQEND
  5
19C
330
199
100
AcDbEntity
  8
\U+56FE\U+5C42 1
370
    35
  0
POLYLINE
  5
19D
330
1F
100
AcDbEntity
  8
\U+56FE\U+5C42 1
 62
     7
420
 16777215
370
    35
100
AcDb2dPolyline
 66
     1
 10
0.0
 20
0.0
 30
0.0
  0
VERTEX
  5
19E
330
19D
100
AcDbEntity
  8
\U+56FE\U+5C42 1
 62
     7
420
 16777215
370
    35
100
AcDbVertex
100
AcDb2dVertex
 10
197.887834965719
 20
172.5629380536475
 30
0.0
  0
VERTEX
  5
19F
330
19D
100
AcDbEntity
  8
\U+56FE\U+5C42 1
 62
     7
420
 16777215
370
    35
100
AcDbVertex
100
AcDb2dVertex
 10
198.294700742527
 20
173.0710896377218
 30
0.0
  0
VERTEX
  5
1A0
330
19D
100
AcDbEntity
  8
\U+56FE\U+5C42 1
 62
     7
420
 16777215
370
    35
100
AcDbVertex
100
AcDb2dVertex
 10
199.1073987674975
 20
173.0710896377218
 30
0.0
  0
VERTEX
  5
1A1
330
19D
100
AcDbEntity
  8
\U+56FE\U+5C42 1
 62
     7
420
 16777215
370
    35
100
AcDbVertex
100
AcDb2dVertex
 10
199.5135755252084
 20
172.5629380536475
 30
0.0
  0
VERTEX
  5
1A2
330
19D
100
AcDbEntity
  8
\U+56FE\U+5C42 1
 62
     7
420
 16777215
370
    35
100
AcDbVertex
100
AcDb2dVertex
 10
199.5135755252084
 20
172.0549587243474
 30
0.0
  0
VERTEX
  5
1A3
330
19D
100
AcDbEntity
  8
\U+56FE\U+5C42 1
 62
     7
420
 16777215
370
    35
100
AcDbVertex
100
AcDb2dVertex
 10
199.1073987674975
 20
171.546807140273
 30
0.0
  0
VERTEX
  5
1A4
330
19D
100
AcDbEntity
  8
\U+56FE\U+5C42 1
 62
     7
420
 16777215
370
    35
100
AcDbVertex
100
AcDb2dVertex
 10
198.294700742527
 20
171.546807140273
 30
0.0
  0
VERTEX
  5
1A5
330
19D
100
AcDbEntity
  8
\U+56FE\U+5C42 1
 62
     7
420
 16777215
370
    35
100
AcDbVertex
100
AcDb2dVertex
 10
197.887834965719
 20
171.0386555561987
 30
0.0
  0
VERTEX
  5
1A6
330
19D
100
AcDbEntity
  8
\U+56FE\U+5C42 1
 62
     7
420
 16777215
370
    35
100
AcDbVertex
100
AcDb2dVertex
 10
197.887834965719
 20
170.023041407147
 30
0.0
  0
VERTEX
  5
1A7
330
19D
100
AcDbEntity
  8
\U+56FE\U+5C42 1
 62
     7
420
 16777215
370
    35
100
AcDbVertex
100
AcDb2dVertex
 10
199.5135755252084
 20
170.023041407147
 30
0.0
  0
SEQEND
  5
1A8
330
19D
100
AcDbEntity
  8
\U+56FE\U+5C42 1
370
    35
  0
POLYLINE
  5
1A9
330
1F
100
AcDbEntity
  8
\U+56FE\U+5C42 1
 62
     7
420
 16777215
370
    35
100
AcDb2dPolyline
 66
     1
 10
0.0
 20
0.0
 30
0.0
  0
VERTEX
  5
1AA
330
1A9
100
AcDbEntity
  8
\U+56FE\U+5C42 1
 62
     7
420
 16777215
370
    35
100
AcDbVertex
100
AcDb2dVertex
 10
310.6635524396953
 20
171.546807140273
 30
0.0
  0
VERTEX
  5
1AB
330
1A9
100
AcDbEntity
  8
\U+56FE\U+5C42 1
 62
     7
420
 16777215
370
    35
100
AcDbVertex
100
AcDb2dVertex
 10
206.9301770858543
 20
171.546807140273
 30
0.0
  0
SEQEND
  5
1AC
330
1A9
100
AcDbEntity
  8
\U+56FE\U+5C42 1
370
    35
  0
POLYLINE
  5
1AD
330
1F
100
AcDbEntity
  8
\U+56FE\U+5C42 1
 62
     7
420
 16777215
370
    35
100
AcDb2dPolyline
 66
     1
 10
0.0
 20
0.0
 30
0.0
  0
VERTEX
  5
1AE
330
1AD
100
AcDbEntity
  8
\U+56FE\U+5C42 1
 62
     7
420
 16777215
370
    35
100
AcDbVertex
100
AcDb2dVertex
 10
80.84467771416384
 20
171.546807140273
 30
0.0
  0
VERTEX
  5
1AF
330
1AD
100
AcDbEntity
  8
\U+56FE\U+5C42 1
 62
     7
420
 16777215
370
    35
100
AcDbVertex
100
AcDb2dVertex
 10
184.5783975775533
 20
171.546807140273
 30
0.0
  0
SEQEND
  5
1B0
330
1AD
100
AcDbEntity
  8
\U+56FE\U+5C42 1
370
    35
  0
POLYLINE
  5
1B1
330
1F
100
AcDbEntity
  8
\U+56FE\U+5C42 1
 62
     7
420
 16777215
370
    35
100
AcDb2dPolyline
 66
     1
 10
0.0
 20
0.0
 30
0.0
  0
VERTEX
  5
1B2
330
1B1
100
AcDbEntity
  8
\U+56FE\U+5C42 1
 62
     7
420
 16777215
370
    35
100
AcDbVertex
100
AcDb2dVertex
 10
310.6635524396953
 20
135.8852457342579
 30
0.0
  0
VERTEX
  5
1B3
330
1B1
100
AcDbEntity
  8
\U+56FE\U+5C42 1
 62
     7
420
 16777215
370
    35
100
AcDbVertex
100
AcDb2dVertex
 10
310.6635524396953
 20
172.7660264325029
 30
0.0
  0
SEQEND
  5
1B4
330
1B1
100
AcDbEntity
  8
\U+56FE\U+5C42 1
370
    35
  0
POLYLINE
  5
1B5
330
1F
100
AcDbEntity
  8
\U+56FE\U+5C42 1
 62
     7
420
 16777215
370
    35
100
AcDb2dPolyline
 66
     1
 10
0.0
 20
0.0
 30
0.0
  0
VERTEX
  5
1B6
330
1B5
100
AcDbEntity
  8
\U+56FE\U+5C42 1
 62
     7
420
 16777215
370
    35
100
AcDbVertex
100
AcDb2dVertex
 10
80.84467771416384
 20
135.8852457342579
 30
0.0
  0
VERTEX
  5
1B7
330
1B5
100
AcDbEntity
  8
\U+56FE\U+5C42 1
 62
     7
420
 16777215
370
    35
100
AcDbVertex
100
AcDb2dVertex
 10
80.84467771416384
 20
172.7660264325029
 30
0.0
  0
SEQEND
  5
1B8
330
1B5
100
AcDbEntity
  8
\U+56FE\U+5C42 1
370
    35
  0
POLYLINE
  5
1B9
330
1F
100
AcDbEntity
  8
\U+56FE\U+5C42 1
370
     0
100
AcDb2dPolyline
 66
     1
 10
0.0
 20
0.0
 30
0.0
  0
VERTEX
  5
1BA
330
1B9
100
AcDbEntity
  8
\U+56FE\U+5C42 1
370
     0
100
AcDbVertex
100
AcDb2dVertex
 10
80.84467771416384
 20
171.546807140273
 30
0.0
  0
VERTEX
  5
1BB
330
1B9
100
AcDbEntity
  8
\U+56FE\U+5C42 1
370
     0
100
AcDbVertex
100
AcDb2dVertex
 10
83.79126788269802
 20
171.1404581277878
 30
0.0
  0
VERTEX
  5
1BC
330
1B9
100
AcDbEntity
  8
\U+56FE\U+5C42 1
370
     0
100
AcDbVertex
100
AcDb2dVertex
 10
83.79126788269802
 20
171.9531561527583
 30
0.0
  0
VERTEX
  5
1BD
330
1B9
100
AcDbEntity
  8
\U+56FE\U+5C42 1
370
     0
100
AcDbVertex
100
AcDb2dVertex
 10
80.84467771416384
 20
171.546807140273
 30
0.0
  0
SEQEND
  5
1BE
330
1B9
100
AcDbEntity
  8
\U+56FE\U+5C42 1
370
     0
  0
HATCH
  5
1BF
330
1F
100
AcDbEntity
  8
\U+56FE\U+5C42 1
 62
     7
420
 16777215
100
AcDbHatch
 10
0.0
 20
0.0
 30
0.0
210
0.0
220
0.0
230
1.0
  2
SOLID
 70
     1
 71
     0
 91
        1
 92
        1
 93
        3
 72
     1
 10
80.84467771416384
 20
171.546807140273
 11
83.79126788269802
 21
171.1404581277878
 72
     1
 10
83.79126788269802
 20
171.1404581277878
 11
83.79126788269802
 21
171.9531561527583
 72
     1
 10
83.79126788269802
 20
171.9531561527583
 11
80.84467771416384
 21
171.546807140273
 97
        0
 75
     0
 76
     1
 98
        0
  0
POLYLINE
  5
1C0
330
1F
100
AcDbEntity
  8
\U+56FE\U+5C42 1
370
     0
100
AcDb2dPolyline
 66
     1
 10
0.0
 20
0.0
 30
0.0
  0
VERTEX
  5
1C1
330
1C0
100
AcDbEntity
  8
\U+56FE\U+5C42 1
370
     0
100
AcDbVertex
100
AcDb2dVertex
 10
310.6635524396953
 20
171.546807140273
 30
0.0
  0
VERTEX
  5
1C2
330
1C0
100
AcDbEntity
  8
\U+56FE\U+5C42 1
370
     0
100
AcDbVertex
100
AcDb2dVertex
 10
307.7179957998066
 20
171.9531561527583
 30
0.0
  0
VERTEX
  5
1C3
330
1C0
100
AcDbEntity
  8
\U+56FE\U+5C42 1
370
     0
100
AcDbVertex
100
AcDb2dVertex
 10
307.7179957998066
 20
171.1404581277878
 30
0.0
  0
VERTEX
  5
1C4
330
1C0
100
AcDbEntity
  8
\U+56FE\U+5C42 1
370
     0
100
AcDbVertex
100
AcDb2dVertex
 10
310.6635524396953
 20
171.546807140273
 30
0.0
  0
SEQEND
  5
1C5
330
1C0
100
AcDbEntity
  8
\U+56FE\U+5C42 1
370
     0
  0
HATCH
  5
1C6
330
1F
100
AcDbEntity
  8
\U+56FE\U+5C42 1
 62
     7
420
 16777215
100
AcDbHatch
 10
0.0
 20
0.0
 30
0.0
210
0.0
220
0.0
230
1.0
  2
SOLID
 70
     1
 71
     0
 91
        1
 92
        1
 93
        3
 72
     1
 10
310.6635524396953
 20
171.546807140273
 11
307.7179957998066
 21
171.9531561527583
 72
     1
 10
307.7179957998066
 20
171.9531561527583
 11
307.7179957998066
 21
171.1404581277878
 72
     1
 10
307.7179957998066
 20
171.1404581277878
 11
310.6635524396953
 21
171.546807140273
 97
        0
 75
     0
 76
     1
 98
        0
  0
POLYLINE
  5
1C7
330
1F
100
AcDbEntity
  8
\U+56FE\U+5C42 1
 62
     7
420
 16777215
370
    35
100
AcDb2dPolyline
 66
     1
 10
0.0
 20
0.0
 30
0.0
  0
VERTEX
  5
1C8
330
1C7
100
AcDbEntity
  8
\U+56FE\U+5C42 1
 62
     7
420
 16777215
370
    35
100
AcDbVertex
100
AcDb2dVertex
 10
82.97839760295332
 20
126.7412732973077
 30
0.0
  0
VERTEX
  5
1C9
330
1C7
100
AcDbEntity
  8
\U+56FE\U+5C42 1
 62
     7
420
 16777215
370
    35
100
AcDbVertex
100
AcDb2dVertex
 10
68.75445961822805
 20
126.7412732973077
 30
0.0
  0
SEQEND
  5
1CA
330
1C7
100
AcDbEntity
  8
\U+56FE\U+5C42 1
370
    35
  0
POLYLINE
  5
1CB
330
1F
100
AcDbEntity
  8
\U+56FE\U+5C42 1
 62
     7
420
 16777215
370
    35
100
AcDb2dPolyline
 66
     1
 10
0.0
 20
0.0
 30
0.0
  0
VERTEX
  5
1CC
330
1CB
100
AcDbEntity
  8
\U+56FE\U+5C42 1
 62
     7
420
 16777215
370
    35
100
AcDbVertex
100
AcDb2dVertex
 10
82.97839760295332
 20
137.3077256601175
 30
0.0
  0
VERTEX
  5
1CD
330
1CB
100
AcDbEntity
  8
\U+56FE\U+5C42 1
 62
     7
420
 16777215
370
    35
100
AcDbVertex
100
AcDb2dVertex
 10
68.75445961822805
 20
137.3077256601175
 30
0.0
  0
SEQEND
  5
1CE
330
1CB
100
AcDbEntity
  8
\U+56FE\U+5C42 1
370
    35
  0
POLYLINE
  5
1CF
330
1F
100
AcDbEntity
  8
\U+56FE\U+5C42 1
 62
     7
420
 16777215
370
    35
100
AcDb2dPolyline
 66
     1
 10
0.0
 20
0.0
 30
0.0
  0
VERTEX
  5
1D0
330
1CF
100
AcDbEntity
  8
\U+56FE\U+5C42 1
 62
     7
420
 16777215
370
    35
100
AcDbVertex
100
AcDb2dVertex
 10
69.97367891045798
 20
137.3077256601175
 30
0.0
  0
VERTEX
  5
1D1
330
1CF
100
AcDbEntity
  8
\U+56FE\U+5C42 1
 62
     7
420
 16777215
370
    35
100
AcDbVertex
100
AcDb2dVertex
 10
69.97367891045798
 20
132.0243272239384
 30
0.0
  0
VERTEX
  5
1D2
330
1CF
100
AcDbEntity
  8
\U+56FE\U+5C42 1
 62
     7
420
 16777215
370
    35
100
AcDbVertex
100
AcDb2dVertex
 10
69.97367891045798
 20
140.7621229031775
 30
0.0
  0
SEQEND
  5
1D3
330
1CF
100
AcDbEntity
  8
\U+56FE\U+5C42 1
370
    35
  0
POLYLINE
  5
1D4
330
1F
100
AcDbEntity
  8
\U+56FE\U+5C42 1
 62
     7
420
 16777215
370
    35
100
AcDb2dPolyline
 66
     1
 10
0.0
 20
0.0
 30
0.0
  0
VERTEX
  5
1D5
330
1D4
100
AcDbEntity
  8
\U+56FE\U+5C42 1
 62
     7
420
 16777215
370
    35
100
AcDbVertex
100
AcDb2dVertex
 10
69.97367891045798
 20
126.7412732973077
 30
0.0
  0
VERTEX
  5
1D6
330
1D4
100
AcDbEntity
  8
\U+56FE\U+5C42 1
 62
     7
420
 16777215
370
    35
100
AcDbVertex
100
AcDb2dVertex
 10
69.97367891045798
 20
132.0243272239384
 30
0.0
  0
SEQEND
  5
1D7
330
1D4
100
AcDbEntity
  8
\U+56FE\U+5C42 1
370
    35
  0
POLYLINE
  5
1D8
330
1F
100
AcDbEntity
  8
\U+56FE\U+5C42 1
370
     0
100
AcDb2dPolyline
 66
     1
 10
0.0
 20
0.0
 30
0.0
  0
VERTEX
  5
1D9
330
1D8
100
AcDbEntity
  8
\U+56FE\U+5C42 1
370
     0
100
AcDbVertex
100
AcDb2dVertex
 10
69.97367891045798
 20
137.3077256601175
 30
0.0
  0
VERTEX
  5
1DA
330
1D8
100
AcDbEntity
  8
\U+56FE\U+5C42 1
370
     0
100
AcDbVertex
100
AcDb2dVertex
 10
69.56732989797275
 20
134.3611354915833
 30
0.0
  0
VERTEX
  5
1DB
330
1D8
100
AcDbEntity
  8
\U+56FE\U+5C42 1
370
     0
100
AcDbVertex
100
AcDb2dVertex
 10
70.48183049453232
 20
134.3611354915833
 30
0.0
  0
VERTEX
  5
1DC
330
1D8
100
AcDbEntity
  8
\U+56FE\U+5C42 1
370
     0
100
AcDbVertex
100
AcDb2dVertex
 10
69.97367891045798
 20
137.3077256601175
 30
0.0
  0
SEQEND
  5
1DD
330
1D8
100
AcDbEntity
  8
\U+56FE\U+5C42 1
370
     0
  0
HATCH
  5
1DE
330
1F
100
AcDbEntity
  8
\U+56FE\U+5C42 1
 62
     7
420
 16777215
100
AcDbHatch
 10
0.0
 20
0.0
 30
0.0
210
0.0
220
0.0
230
1.0
  2
SOLID
 70
     1
 71
     0
 91
        1
 92
        1
 93
        3
 72
     1
 10
69.97367891045798
 20
137.3077256601175
 11
69.56732989797275
 21
134.3611354915833
 72
     1
 10
69.56732989797275
 20
134.3611354915833
 11
70.48183049453232
 21
134.3611354915833
 72
     1
 10
70.48183049453232
 20
134.3611354915833
 11
69.97367891045798
 21
137.3077256601175
 97
        0
 75
     0
 76
     1
 98
        0
  0
POLYLINE
  5
1DF
330
1F
100
AcDbEntity
  8
\U+56FE\U+5C42 1
370
     0
100
AcDb2dPolyline
 66
     1
 10
0.0
 20
0.0
 30
0.0
  0
VERTEX
  5
1E0
330
1DF
100
AcDbEntity
  8
\U+56FE\U+5C42 1
370
     0
100
AcDbVertex
100
AcDb2dVertex
 10
69.97367891045798
 20
126.7412732973077
 30
0.0
  0
VERTEX
  5
1E1
330
1DF
100
AcDbEntity
  8
\U+56FE\U+5C42 1
370
     0
100
AcDbVertex
100
AcDb2dVertex
 10
70.48183049453232
 20
129.6875189562934
 30
0.0
  0
VERTEX
  5
1E2
330
1DF
100
AcDbEntity
  8
\U+56FE\U+5C42 1
370
     0
100
AcDbVertex
100
AcDb2dVertex
 10
69.56732989797275
 20
129.6875189562934
 30
0.0
  0
VERTEX
  5
1E3
330
1DF
100
AcDbEntity
  8
\U+56FE\U+5C42 1
370
     0
100
AcDbVertex
100
AcDb2dVertex
 10
69.97367891045798
 20
126.7412732973077
 30
0.0
  0
SEQEND
  5
1E4
330
1DF
100
AcDbEntity
  8
\U+56FE\U+5C42 1
370
     0
  0
HATCH
  5
1E5
330
1F
100
AcDbEntity
  8
\U+56FE\U+5C42 1
 62
     7
420
 16777215
100
AcDbHatch
 10
0.0
 20
0.0
 30
0.0
210
0.0
220
0.0
230
1.0
  2
SOLID
 70
     1
 71
     0
 91
        1
 92
        1
 93
        3
 72
     1
 10
69.97367891045798
 20
126.7412732973077
 11
70.48183049453232
 21
129.6875189562934
 72
     1
 10
70.48183049453232
 20
129.6875189562934
 11
69.56732989797275
 21
129.6875189562934
 72
     1
 10
69.56732989797275
 20
129.6875189562934
 11
69.97367891045798
 21
126.7412732973077
 97
        0
 75
     0
 76
     1
 98
        0
  0
POLYLINE
  5
1E6
330
1F
100
AcDbEntity
  8
\U+56FE\U+5C42 1
 62
     7
420
 16777215
370
    35
100
AcDb2dPolyline
 66
     1
 10
0.0
 20
0.0
 30
0.0
  0
VERTEX
  5
1E7
330
1E6
100
AcDbEntity
  8
\U+56FE\U+5C42 1
 62
     7
420
 16777215
370
    35
100
AcDbVertex
100
AcDb2dVertex
 10
81.14956866460844
 20
134.2595051747685
 30
0.0
  0
VERTEX
  5
1E8
330
1E6
100
AcDbEntity
  8
\U+56FE\U+5C42 1
 62
     7
420
 16777215
370
    35
100
AcDbVertex
100
AcDb2dVertex
 10
80.84467771416384
 20
134.3611354915833
 30
0.0
  0
SEQEND
  5
1E9
330
1E6
100
AcDbEntity
  8
\U+56FE\U+5C42 1
370
    35
  0
POLYLINE
  5
1EA
330
1F
100
AcDbEntity
  8
\U+56FE\U+5C42 1
 62
     7
420
 16777215
370
    35
100
AcDb2dPolyline
 66
     1
 10
0.0
 20
0.0
 30
0.0
  0
VERTEX
  5
1EB
330
1EA
100
AcDbEntity
  8
\U+56FE\U+5C42 1
 62
     7
420
 16777215
370
    35
100
AcDbVertex
100
AcDb2dVertex
 10
81.14956866460844
 20
129.7894937826568
 30
0.0
  0
VERTEX
  5
1EC
330
1EA
100
AcDbEntity
  8
\U+56FE\U+5C42 1
 62
     7
420
 16777215
370
    35
100
AcDbVertex
100
AcDb2dVertex
 10
80.84467771416384
 20
129.6875189562934
 30
0.0
  0
SEQEND
  5
1ED
330
1EA
100
AcDbEntity
  8
\U+56FE\U+5C42 1
370
    35
  0
POLYLINE
  5
1EE
330
1F
100
AcDbEntity
  8
\U+56FE\U+5C42 1
 62
     7
420
 16777215
370
    35
100
AcDb2dPolyline
 66
     1
 10
0.0
 20
0.0
 30
0.0
  0
VERTEX
  5
1EF
330
1EE
100
AcDbEntity
  8
\U+56FE\U+5C42 1
 62
     7
420
 16777215
370
    35
100
AcDbVertex
100
AcDb2dVertex
 10
81.14956866460844
 20
128.874820931323
 30
0.0
  0
VERTEX
  5
1F0
330
1EE
100
AcDbEntity
  8
\U+56FE\U+5C42 1
 62
     7
420
 16777215
370
    35
100
AcDbVertex
100
AcDb2dVertex
 10
80.84467771416384
 20
128.9764512481378
 30
0.0
  0
SEQEND
  5
1F1
330
1EE
100
AcDbEntity
  8
\U+56FE\U+5C42 1
370
    35
  0
POLYLINE
  5
1F2
330
1F
100
AcDbEntity
  8
\U+56FE\U+5C42 1
 62
     7
420
 16777215
370
    35
100
AcDb2dPolyline
 66
     1
 10
0.0
 20
0.0
 30
0.0
  0
VERTEX
  5
1F3
330
1F2
100
AcDbEntity
  8
\U+56FE\U+5C42 1
 62
     7
420
 16777215
370
    35
100
AcDbVertex
100
AcDb2dVertex
 10
81.14956866460844
 20
135.1741780261023
 30
0.0
  0
VERTEX
  5
1F4
330
1F2
100
AcDbEntity
  8
\U+56FE\U+5C42 1
 62
     7
420
 16777215
370
    35
100
AcDbVertex
100
AcDb2dVertex
 10
80.84467771416384
 20
135.0722031997389
 30
0.0
  0
SEQEND
  5
1F5
330
1F2
100
AcDbEntity
  8
\U+56FE\U+5C42 1
370
    35
  0
POLYLINE
  5
1F6
330
1F
100
AcDbEntity
  8
\U+56FE\U+5C42 1
 62
     7
420
 16777215
370
    35
100
AcDb2dPolyline
 66
     1
 10
0.0
 20
0.0
 30
0.0
  0
VERTEX
  5
1F7
330
1F6
100
AcDbEntity
  8
\U+56FE\U+5C42 1
 62
     7
420
 16777215
370
    35
100
AcDbVertex
100
AcDb2dVertex
 10
88.05836315072847
 20
126.6396429804929
 30
0.0
  0
VERTEX
  5
1F8
330
1F6
100
AcDbEntity
  8
\U+56FE\U+5C42 1
 62
     7
420
 16777215
370
    35
100
AcDbVertex
100
AcDb2dVertex
 10
88.05836315072847
 20
137.4093559769324
 30
0.0
  0
SEQEND
  5
1F9
330
1F6
100
AcDbEntity
  8
\U+56FE\U+5C42 1
370
    35
  0
POLYLINE
  5
1FA
330
1F
100
AcDbEntity
  8
\U+56FE\U+5C42 1
 62
     7
420
 16777215
370
    35
100
AcDb2dPolyline
 66
     1
 10
0.0
 20
0.0
 30
0.0
  0
VERTEX
  5
1FB
330
1FA
100
AcDbEntity
  8
\U+56FE\U+5C42 1
 62
     7
420
 16777215
370
    35
100
AcDbVertex
100
AcDb2dVertex
 10
87.85544702664725
 20
137.3077256601175
 30
0.0
  0
VERTEX
  5
1FC
330
1FA
100
AcDbEntity
  8
\U+56FE\U+5C42 1
 62
     7
420
 16777215
370
    35
100
AcDbVertex
100
AcDb2dVertex
 10
87.85544702664725
 20
126.7412732973077
 30
0.0
  0
SEQEND
  5
1FD
330
1FA
100
AcDbEntity
  8
\U+56FE\U+5C42 1
370
    35
  0
POLYLINE
  5
1FE
330
1F
100
AcDbEntity
  8
\U+56FE\U+5C42 1
 62
     7
420
 16777215
370
    35
100
AcDb2dPolyline
 66
     1
 10
0.0
 20
0.0
 30
0.0
  0
VERTEX
  5
1FF
330
1FE
100
AcDbEntity
  8
\U+56FE\U+5C42 1
 62
     7
420
 16777215
370
    35
100
AcDbVertex
100
AcDb2dVertex
 10
87.85544702664725
 20
137.4093559769324
 30
0.0
  0
VERTEX
  5
200
330
1FE
100
AcDbEntity
  8
\U+56FE\U+5C42 1
 62
     7
420
 16777215
370
    35
100
AcDbVertex
100
AcDb2dVertex
 10
87.85544702664725
 20
126.6396429804929
 30
0.0
  0
SEQEND
  5
201
330
1FE
100
AcDbEntity
  8
\U+56FE\U+5C42 1
370
    35
  0
POLYLINE
  5
202
330
1F
100
AcDbEntity
  8
\U+56FE\U+5C42 1
 62
     7
420
 16777215
370
    35
100
AcDb2dPolyline
 66
     1
 10
0.0
 20
0.0
 30
0.0
  0
VERTEX
  5
203
330
202
100
AcDbEntity
  8
\U+56FE\U+5C42 1
 62
     7
420
 16777215
370
    35
100
AcDbVertex
100
AcDb2dVertex
 10
83.99452851632776
 20
126.6396429804929
 30
0.0
  0
VERTEX
  5
204
330
202
100
AcDbEntity
  8
\U+56FE\U+5C42 1
 62
     7
420
 16777215
370
    35
100
AcDbVertex
100
AcDb2dVertex
 10
83.99452851632776
 20
137.3077256601175
 30
0.0
  0
SEQEND
  5
205
330
202
100
AcDbEntity
  8
\U+56FE\U+5C42 1
370
    35
  0
POLYLINE
  5
206
330
1F
100
AcDbEntity
  8
\U+56FE\U+5C42 1
 62
     7
420
 16777215
370
    35
100
AcDb2dPolyline
 66
     1
 10
0.0
 20
0.0
 30
0.0
  0
VERTEX
  5
207
330
206
100
AcDbEntity
  8
\U+56FE\U+5C42 1
 62
     7
420
 16777215
370
    35
100
AcDbVertex
100
AcDb2dVertex
 10
83.79126788269802
 20
137.1048095360363
 30
0.0
  0
VERTEX
  5
208
330
206
100
AcDbEntity
  8
\U+56FE\U+5C42 1
 62
     7
420
 16777215
370
    35
100
AcDbVertex
100
AcDb2dVertex
 10
83.79126788269802
 20
126.944189421389
 30
0.0
  0
SEQEND
  5
209
330
206
100
AcDbEntity
  8
\U+56FE\U+5C42 1
370
    35
  0
POLYLINE
  5
20A
330
1F
100
AcDbEntity
  8
\U+56FE\U+5C42 1
 62
     7
420
 16777215
370
    35
100
AcDb2dPolyline
 66
     1
 10
0.0
 20
0.0
 30
0.0
  0
VERTEX
  5
20B
330
20A
100
AcDbEntity
  8
\U+56FE\U+5C42 1
 62
     7
420
 16777215
370
    35
100
AcDbVertex
100
AcDb2dVertex
 10
83.79126788269802
 20
134.0565890506873
 30
0.0
  0
VERTEX
  5
20C
330
20A
100
AcDbEntity
  8
\U+56FE\U+5C42 1
 62
     7
420
 16777215
370
    35
100
AcDbVertex
100
AcDb2dVertex
 10
83.79126788269802
 20
135.377438659732
 30
0.0
  0
SEQEND
  5
20D
330
20A
100
AcDbEntity
  8
\U+56FE\U+5C42 1
370
    35
  0
POLYLINE
  5
20E
330
1F
100
AcDbEntity
  8
\U+56FE\U+5C42 1
 62
     7
420
 16777215
370
    35
100
AcDb2dPolyline
 66
     1
 10
0.0
 20
0.0
 30
0.0
  0
VERTEX
  5
20F
330
20E
100
AcDbEntity
  8
\U+56FE\U+5C42 1
 62
     7
420
 16777215
370
    35
100
AcDbVertex
100
AcDb2dVertex
 10
83.79126788269802
 20
128.6715602976932
 30
0.0
  0
VERTEX
  5
210
330
20E
100
AcDbEntity
  8
\U+56FE\U+5C42 1
 62
     7
420
 16777215
370
    35
100
AcDbVertex
100
AcDb2dVertex
 10
83.79126788269802
 20
129.992409906738
 30
0.0
  0
SEQEND
  5
211
330
20E
100
AcDbEntity
  8
\U+56FE\U+5C42 1
370
    35
  0
POLYLINE
  5
212
330
1F
100
AcDbEntity
  8
\U+56FE\U+5C42 1
 62
     7
420
 16777215
370
    35
100
AcDb2dPolyline
 66
     1
 10
0.0
 20
0.0
 30
0.0
  0
VERTEX
  5
213
330
212
100
AcDbEntity
  8
\U+56FE\U+5C42 1
 62
     7
420
 16777215
370
    35
100
AcDbVertex
100
AcDb2dVertex
 10
83.68963756588315
 20
129.8907795899231
 30
0.0
  0
VERTEX
  5
214
330
212
100
AcDbEntity
  8
\U+56FE\U+5C42 1
 62
     7
420
 16777215
370
    35
100
AcDbVertex
100
AcDb2dVertex
 10
83.68963756588315
 20
128.7731906145081
 30
0.0
  0
SEQEND
  5
215
330
212
100
AcDbEntity
  8
\U+56FE\U+5C42 1
370
    35
  0
POLYLINE
  5
216
330
1F
100
AcDbEntity
  8
\U+56FE\U+5C42 1
 62
     7
420
 16777215
370
    35
100
AcDb2dPolyline
 66
     1
 10
0.0
 20
0.0
 30
0.0
  0
VERTEX
  5
217
330
216
100
AcDbEntity
  8
\U+56FE\U+5C42 1
 62
     7
420
 16777215
370
    35
100
AcDbVertex
100
AcDb2dVertex
 10
83.68963756588315
 20
135.2758083429172
 30
0.0
  0
VERTEX
  5
218
330
216
100
AcDbEntity
  8
\U+56FE\U+5C42 1
 62
     7
420
 16777215
370
    35
100
AcDbVertex
100
AcDb2dVertex
 10
83.68963756588315
 20
134.1582193675021
 30
0.0
  0
SEQEND
  5
219
330
216
100
AcDbEntity
  8
\U+56FE\U+5C42 1
370
    35
  0
POLYLINE
  5
21A
330
1F
100
AcDbEntity
  8
\U+56FE\U+5C42 1
 62
     7
420
 16777215
370
    35
100
AcDb2dPolyline
 66
     1
 10
0.0
 20
0.0
 30
0.0
  0
VERTEX
  5
21B
330
21A
100
AcDbEntity
  8
\U+56FE\U+5C42 1
 62
     7
420
 16777215
370
    35
100
AcDbVertex
100
AcDb2dVertex
 10
81.14956866460844
 20
134.2595051747685
 30
0.0
  0
VERTEX
  5
21C
330
21A
100
AcDbEntity
  8
\U+56FE\U+5C42 1
 62
     7
420
 16777215
370
    35
100
AcDbVertex
100
AcDb2dVertex
 10
81.14956866460844
 20
135.1741780261023
 30
0.0
  0
SEQEND
  5
21D
330
21A
100
AcDbEntity
  8
\U+56FE\U+5C42 1
370
    35
  0
POLYLINE
  5
21E
330
1F
100
AcDbEntity
  8
\U+56FE\U+5C42 1
 62
     7
420
 16777215
370
    35
100
AcDb2dPolyline
 66
     1
 10
0.0
 20
0.0
 30
0.0
  0
VERTEX
  5
21F
330
21E
100
AcDbEntity
  8
\U+56FE\U+5C42 1
 62
     7
420
 16777215
370
    35
100
AcDbVertex
100
AcDb2dVertex
 10
81.14956866460844
 20
128.874820931323
 30
0.0
  0
VERTEX
  5
220
330
21E
100
AcDbEntity
  8
\U+56FE\U+5C42 1
 62
     7
420
 16777215
370
    35
100
AcDbVertex
100
AcDb2dVertex
 10
81.14956866460844
 20
129.7894937826568
 30
0.0
  0
SEQEND
  5
221
330
21E
100
AcDbEntity
  8
\U+56FE\U+5C42 1
370
    35
  0
POLYLINE
  5
222
330
1F
100
AcDbEntity
  8
\U+56FE\U+5C42 1
 62
     7
420
 16777215
370
    35
100
AcDb2dPolyline
 66
     1
 10
0.0
 20
0.0
 30
0.0
  0
VERTEX
  5
223
330
222
100
AcDbEntity
  8
\U+56FE\U+5C42 1
 62
     7
420
 16777215
370
    35
100
AcDbVertex
100
AcDb2dVertex
 10
80.84467771416384
 20
134.3611354915833
 30
0.0
  0
VERTEX
  5
224
330
222
100
AcDbEntity
  8
\U+56FE\U+5C42 1
 62
     7
420
 16777215
370
    35
100
AcDbVertex
100
AcDb2dVertex
 10
80.84467771416384
 20
135.0722031997389
 30
0.0
  0
SEQEND
  5
225
330
222
100
AcDbEntity
  8
\U+56FE\U+5C42 1
370
    35
  0
POLYLINE
  5
226
330
1F
100
AcDbEntity
  8
\U+56FE\U+5C42 1
 62
     7
420
 16777215
370
    35
100
AcDb2dPolyline
 66
     1
 10
0.0
 20
0.0
 30
0.0
  0
VERTEX
  5
227
330
226
100
AcDbEntity
  8
\U+56FE\U+5C42 1
 62
     7
420
 16777215
370
    35
100
AcDbVertex
100
AcDb2dVertex
 10
80.84467771416384
 20
128.9764512481378
 30
0.0
  0
VERTEX
  5
228
330
226
100
AcDbEntity
  8
\U+56FE\U+5C42 1
 62
     7
420
 16777215
370
    35
100
AcDbVertex
100
AcDb2dVertex
 10
80.84467771416384
 20
129.6875189562934
 30
0.0
  0
SEQEND
  5
229
330
226
100
AcDbEntity
  8
\U+56FE\U+5C42 1
370
    35
  0
POLYLINE
  5
22A
330
1F
100
AcDbEntity
  8
\U+56FE\U+5C42 1
 62
     7
420
 16777215
370
    35
100
AcDb2dPolyline
 66
     1
 10
0.0
 20
0.0
 30
0.0
  0
VERTEX
  5
22B
330
22A
100
AcDbEntity
  8
\U+56FE\U+5C42 1
 62
     7
420
 16777215
370
    35
100
AcDbVertex
100
AcDb2dVertex
 10
210.38440207414
 20
134.1582193675021
 30
0.0
  0
VERTEX
  5
22C
330
22A
100
AcDbEntity
  8
\U+56FE\U+5C42 1
 62
     7
420
 16777215
370
    35
100
AcDbVertex
100
AcDb2dVertex
 10
207.0318074026691
 20
133.6500677834278
 30
0.0
  0
VERTEX
  5
22D
330
22A
100
AcDbEntity
  8
\U+56FE\U+5C42 1
 62
     7
420
 16777215
370
    35
100
AcDbVertex
100
AcDb2dVertex
 10
202.155274743298
 20
133.1422607089019
 30
0.0
  0
SEQEND
  5
22E
330
22A
100
AcDbEntity
  8
\U+56FE\U+5C42 1
370
    35
  0
POLYLINE
  5
22F
330
1F
100
AcDbEntity
  8
\U+56FE\U+5C42 1
 62
     7
420
 16777215
370
    35
100
AcDb2dPolyline
 66
     1
 10
0.0
 20
0.0
 30
0.0
  0
VERTEX
  5
230
330
22F
100
AcDbEntity
  8
\U+56FE\U+5C42 1
 62
     7
420
 16777215
370
    35
100
AcDbVertex
100
AcDb2dVertex
 10
87.85544702664725
 20
126.6396429804929
 30
0.0
  0
VERTEX
  5
231
330
22F
100
AcDbEntity
  8
\U+56FE\U+5C42 1
 62
     7
420
 16777215
370
    35
100
AcDbVertex
100
AcDb2dVertex
 10
83.99452851632776
 20
126.6396429804929
 30
0.0
  0
SEQEND
  5
232
330
22F
100
AcDbEntity
  8
\U+56FE\U+5C42 1
370
    35
  0
POLYLINE
  5
233
330
1F
100
AcDbEntity
  8
\U+56FE\U+5C42 1
 62
     7
420
 16777215
370
    35
100
AcDb2dPolyline
 66
     1
 10
0.0
 20
0.0
 30
0.0
  0
VERTEX
  5
234
330
233
100
AcDbEntity
  8
\U+56FE\U+5C42 1
 62
     7
420
 16777215
370
    35
100
AcDbVertex
100
AcDb2dVertex
 10
181.2256306513082
 20
126.6396429804929
 30
0.0
  0
VERTEX
  5
235
330
233
100
AcDbEntity
  8
\U+56FE\U+5C42 1
 62
     7
420
 16777215
370
    35
100
AcDbVertex
100
AcDb2dVertex
 10
88.05836315072847
 20
126.6396429804929
 30
0.0
  0
SEQEND
  5
236
330
233
100
AcDbEntity
  8
\U+56FE\U+5C42 1
370
    35
  0
POLYLINE
  5
237
330
1F
100
AcDbEntity
  8
\U+56FE\U+5C42 1
 62
     7
420
 16777215
370
    35
100
AcDb2dPolyline
 66
     1
 10
0.0
 20
0.0
 30
0.0
  0
VERTEX
  5
238
330
237
100
AcDbEntity
  8
\U+56FE\U+5C42 1
 62
     7
420
 16777215
370
    35
100
AcDbVertex
100
AcDb2dVertex
 10
88.05836315072847
 20
126.7412732973077
 30
0.0
  0
VERTEX
  5
239
330
237
100
AcDbEntity
  8
\U+56FE\U+5C42 1
 62
     7
420
 16777215
370
    35
100
AcDbVertex
100
AcDb2dVertex
 10
87.85544702664725
 20
126.7412732973077
 30
0.0
  0
SEQEND
  5
23A
330
237
100
AcDbEntity
  8
\U+56FE\U+5C42 1
370
    35
  0
POLYLINE
  5
23B
330
1F
100
AcDbEntity
  8
\U+56FE\U+5C42 1
 62
     7
420
 16777215
370
    35
100
AcDb2dPolyline
 66
     1
 10
0.0
 20
0.0
 30
0.0
  0
VERTEX
  5
23C
330
23B
100
AcDbEntity
  8
\U+56FE\U+5C42 1
 62
     7
420
 16777215
370
    35
100
AcDbVertex
100
AcDb2dVertex
 10
152.7777546818577
 20
129.8907795899231
 30
0.0
  0
VERTEX
  5
23D
330
23B
100
AcDbEntity
  8
\U+56FE\U+5C42 1
 62
     7
420
 16777215
370
    35
100
AcDbVertex
100
AcDb2dVertex
 10
156.1305216081028
 20
130.398586664449
 30
0.0
  0
VERTEX
  5
23E
330
23B
100
AcDbEntity
  8
\U+56FE\U+5C42 1
 62
     7
420
 16777215
370
    35
100
AcDbVertex
100
AcDb2dVertex
 10
161.0072265222482
 20
130.9067382485233
 30
0.0
  0
SEQEND
  5
23F
330
23B
100
AcDbEntity
  8
\U+56FE\U+5C42 1
370
    35
  0
POLYLINE
  5
240
330
1F
100
AcDbEntity
  8
\U+56FE\U+5C42 1
 62
     7
420
 16777215
370
    35
100
AcDb2dPolyline
 66
     1
 10
0.0
 20
0.0
 30
0.0
  0
VERTEX
  5
241
330
240
100
AcDbEntity
  8
\U+56FE\U+5C42 1
 62
     7
420
 16777215
370
    35
100
AcDbVertex
100
AcDb2dVertex
 10
189.049097988762
 20
132.329218174383
 30
0.0
  0
VERTEX
  5
242
330
240
100
AcDbEntity
  8
\U+56FE\U+5C42 1
 62
     7
420
 16777215
370
    35
100
AcDbVertex
100
AcDb2dVertex
 10
196.0591782821484
 20
132.7357394416425
 30
0.0
  0
SEQEND
  5
243
330
240
100
AcDbEntity
  8
\U+56FE\U+5C42 1
370
    35
  0
POLYLINE
  5
244
330
1F
100
AcDbEntity
  8
\U+56FE\U+5C42 1
 62
     7
420
 16777215
370
    35
100
AcDb2dPolyline
 66
     1
 10
0.0
 20
0.0
 30
0.0
  0
VERTEX
  5
245
330
244
100
AcDbEntity
  8
\U+56FE\U+5C42 1
 62
     7
420
 16777215
370
    35
100
AcDbVertex
100
AcDb2dVertex
 10
161.0072265222482
 20
130.9067382485233
 30
0.0
  0
VERTEX
  5
246
330
244
100
AcDbEntity
  8
\U+56FE\U+5C42 1
 62
     7
420
 16777215
370
    35
100
AcDbVertex
100
AcDb2dVertex
 10
167.1034952381721
 20
131.3132595157828
 30
0.0
  0
SEQEND
  5
247
330
244
100
AcDbEntity
  8
\U+56FE\U+5C42 1
370
    35
  0
POLYLINE
  5
248
330
1F
100
AcDbEntity
  8
\U+56FE\U+5C42 1
 62
     7
420
 16777215
370
    35
100
AcDb2dPolyline
 66
     1
 10
0.0
 20
0.0
 30
0.0
  0
VERTEX
  5
249
330
248
100
AcDbEntity
  8
\U+56FE\U+5C42 1
 62
     7
420
 16777215
370
    35
100
AcDbVertex
100
AcDb2dVertex
 10
196.0591782821484
 20
132.7357394416425
 30
0.0
  0
VERTEX
  5
24A
330
248
100
AcDbEntity
  8
\U+56FE\U+5C42 1
 62
     7
420
 16777215
370
    35
100
AcDbVertex
100
AcDb2dVertex
 10
202.155274743298
 20
133.1422607089019
 30
0.0
  0
SEQEND
  5
24B
330
248
100
AcDbEntity
  8
\U+56FE\U+5C42 1
370
    35
  0
POLYLINE
  5
24C
330
1F
100
AcDbEntity
  8
\U+56FE\U+5C42 1
 62
     7
420
 16777215
370
    35
100
AcDb2dPolyline
 66
     1
 10
0.0
 20
0.0
 30
0.0
  0
VERTEX
  5
24D
330
24C
100
AcDbEntity
  8
\U+56FE\U+5C42 1
 62
     7
420
 16777215
370
    35
100
AcDbVertex
100
AcDb2dVertex
 10
167.1034952381721
 20
131.3132595157828
 30
0.0
  0
VERTEX
  5
24E
330
24C
100
AcDbEntity
  8
\U+56FE\U+5C42 1
 62
     7
420
 16777215
370
    35
100
AcDbVertex
100
AcDb2dVertex
 10
174.1137477863327
 20
131.7194362734938
 30
0.0
  0
VERTEX
  5
24F
330
24C
100
AcDbEntity
  8
\U+56FE\U+5C42 1
 62
     7
420
 16777215
370
    35
100
AcDbVertex
100
AcDb2dVertex
 10
189.049097988762
 20
132.329218174383
 30
0.0
  0
SEQEND
  5
250
330
24C
100
AcDbEntity
  8
\U+56FE\U+5C42 1
370
    35
  0
POLYLINE
  5
251
330
1F
100
AcDbEntity
  8
\U+56FE\U+5C42 1
 62
     7
420
 16777215
370
    35
100
AcDb2dPolyline
 66
     1
 10
0.0
 20
0.0
 30
0.0
  0
VERTEX
  5
252
330
251
100
AcDbEntity
  8
\U+56FE\U+5C42 1
 62
     7
420
 16777215
370
    35
100
AcDbVertex
100
AcDb2dVertex
 10
83.79126788269802
 20
128.6715602976932
 30
0.0
  0
VERTEX
  5
253
330
251
100
AcDbEntity
  8
\U+56FE\U+5C42 1
 62
     7
420
 16777215
370
    35
100
AcDbVertex
100
AcDb2dVertex
 10
83.79126788269802
 20
128.7731906145081
 30
0.0
  0
SEQEND
  5
254
330
251
100
AcDbEntity
  8
\U+56FE\U+5C42 1
370
    35
  0
POLYLINE
  5
255
330
1F
100
AcDbEntity
  8
\U+56FE\U+5C42 1
 62
     7
420
 16777215
370
    35
100
AcDb2dPolyline
 66
     1
 10
0.0
 20
0.0
 30
0.0
  0
VERTEX
  5
256
330
255
100
AcDbEntity
  8
\U+56FE\U+5C42 1
 62
     7
420
 16777215
370
    35
100
AcDbVertex
100
AcDb2dVertex
 10
83.79126788269802
 20
129.992409906738
 30
0.0
  0
VERTEX
  5
257
330
255
100
AcDbEntity
  8
\U+56FE\U+5C42 1
 62
     7
420
 16777215
370
    35
100
AcDbVertex
100
AcDb2dVertex
 10
83.79126788269802
 20
130.0940402235529
 30
0.0
  0
SEQEND
  5
258
330
255
100
AcDbEntity
  8
\U+56FE\U+5C42 1
370
    35
  0
POLYLINE
  5
259
330
1F
100
AcDbEntity
  8
\U+56FE\U+5C42 1
 62
     7
420
 16777215
370
    35
100
AcDb2dPolyline
 66
     1
 10
0.0
 20
0.0
 30
0.0
  0
VERTEX
  5
25A
330
259
100
AcDbEntity
  8
\U+56FE\U+5C42 1
 62
     7
420
 16777215
370
    35
100
AcDbVertex
100
AcDb2dVertex
 10
83.68963756588315
 20
129.7894937826568
 30
0.0
  0
VERTEX
  5
25B
330
259
100
AcDbEntity
  8
\U+56FE\U+5C42 1
 62
     7
420
 16777215
370
    35
100
AcDbVertex
100
AcDb2dVertex
 10
81.14956866460844
 20
129.7894937826568
 30
0.0
  0
SEQEND
  5
25C
330
259
100
AcDbEntity
  8
\U+56FE\U+5C42 1
370
    35
  0
POLYLINE
  5
25D
330
1F
100
AcDbEntity
  8
\U+56FE\U+5C42 1
 62
     7
420
 16777215
370
    35
100
AcDb2dPolyline
 66
     1
 10
0.0
 20
0.0
 30
0.0
  0
VERTEX
  5
25E
330
25D
100
AcDbEntity
  8
\U+56FE\U+5C42 1
 62
     7
420
 16777215
370
    35
100
AcDbVertex
100
AcDb2dVertex
 10
83.68963756588315
 20
128.874820931323
 30
0.0
  0
VERTEX
  5
25F
330
25D
100
AcDbEntity
  8
\U+56FE\U+5C42 1
 62
     7
420
 16777215
370
    35
100
AcDbVertex
100
AcDb2dVertex
 10
81.14956866460844
 20
128.874820931323
 30
0.0
  0
SEQEND
  5
260
330
25D
100
AcDbEntity
  8
\U+56FE\U+5C42 1
370
    35
  0
POLYLINE
  5
261
330
1F
100
AcDbEntity
  8
\U+56FE\U+5C42 1
 62
     7
420
 16777215
370
    35
100
AcDb2dPolyline
 66
     1
 10
0.0
 20
0.0
 30
0.0
  0
VERTEX
  5
262
330
261
100
AcDbEntity
  8
\U+56FE\U+5C42 1
 62
     7
420
 16777215
370
    35
100
AcDbVertex
100
AcDb2dVertex
 10
181.2256306513082
 20
126.6396429804929
 30
0.0
  0
VERTEX
  5
263
330
261
100
AcDbEntity
  8
\U+56FE\U+5C42 1
 62
     7
420
 16777215
370
    35
100
AcDbVertex
100
AcDb2dVertex
 10
177.9744940418779
 20
126.8429036141226
 30
0.0
  0
VERTEX
  5
264
330
261
100
AcDbEntity
  8
\U+56FE\U+5C42 1
 62
     7
420
 16777215
370
    35
100
AcDbVertex
100
AcDb2dVertex
 10
169.7446776919388
 20
127.2494248813821
 30
0.0
  0
VERTEX
  5
265
330
261
100
AcDbEntity
  8
\U+56FE\U+5C42 1
 62
     7
420
 16777215
370
    35
100
AcDbVertex
100
AcDb2dVertex
 10
161.0072265222482
 20
127.7568874463594
 30
0.0
  0
VERTEX
  5
266
330
261
100
AcDbEntity
  8
\U+56FE\U+5C42 1
 62
     7
420
 16777215
370
    35
100
AcDbVertex
100
AcDb2dVertex
 10
154.9113023158729
 20
128.2650390304337
 30
0.0
  0
VERTEX
  5
267
330
261
100
AcDbEntity
  8
\U+56FE\U+5C42 1
 62
     7
420
 16777215
370
    35
100
AcDbVertex
100
AcDb2dVertex
 10
151.7617960232575
 20
128.7731906145081
 30
0.0
  0
SEQEND
  5
268
330
261
100
AcDbEntity
  8
\U+56FE\U+5C42 1
370
    35
  0
POLYLINE
  5
269
330
1F
100
AcDbEntity
  8
\U+56FE\U+5C42 1
 62
     7
420
 16777215
370
    35
100
AcDb2dPolyline
 66
     1
 10
0.0
 20
0.0
 30
0.0
  0
VERTEX
  5
26A
330
269
100
AcDbEntity
  8
\U+56FE\U+5C42 1
 62
     7
420
 16777215
370
    35
100
AcDbVertex
100
AcDb2dVertex
 10
151.1520141223683
 20
129.2813421985825
 30
0.0
  0
VERTEX
  5
26B
330
269
100
AcDbEntity
  8
\U+56FE\U+5C42 1
 62
     7
420
 16777215
370
    35
100
AcDbVertex
100
AcDb2dVertex
 10
152.7777546818577
 20
129.8907795899231
 30
0.0
  0
SEQEND
  5
26C
330
269
100
AcDbEntity
  8
\U+56FE\U+5C42 1
370
    35
  0
POLYLINE
  5
26D
330
1F
100
AcDbEntity
  8
\U+56FE\U+5C42 1
 62
     7
420
 16777215
370
    35
100
AcDb2dPolyline
 66
     1
 10
0.0
 20
0.0
 30
0.0
  0
VERTEX
  5
26E
330
26D
100
AcDbEntity
  8
\U+56FE\U+5C42 1
 62
     7
420
 16777215
370
    35
100
AcDbVertex
100
AcDb2dVertex
 10
83.79126788269802
 20
134.0565890506873
 30
0.0
  0
VERTEX
  5
26F
330
26D
100
AcDbEntity
  8
\U+56FE\U+5C42 1
 62
     7
420
 16777215
370
    35
100
AcDbVertex
100
AcDb2dVertex
 10
83.79126788269802
 20
134.1582193675021
 30
0.0
  0
SEQEND
  5
270
330
26D
100
AcDbEntity
  8
\U+56FE\U+5C42 1
370
    35
  0
POLYLINE
  5
271
330
1F
100
AcDbEntity
  8
\U+56FE\U+5C42 1
 62
     7
420
 16777215
370
    35
100
AcDb2dPolyline
 66
     1
 10
0.0
 20
0.0
 30
0.0
  0
VERTEX
  5
272
330
271
100
AcDbEntity
  8
\U+56FE\U+5C42 1
 62
     7
420
 16777215
370
    35
100
AcDbVertex
100
AcDb2dVertex
 10
88.05836315072847
 20
137.2060953433026
 30
0.0
  0
VERTEX
  5
273
330
271
100
AcDbEntity
  8
\U+56FE\U+5C42 1
 62
     7
420
 16777215
370
    35
100
AcDbVertex
100
AcDb2dVertex
 10
87.85544702664725
 20
137.2060953433026
 30
0.0
  0
SEQEND
  5
274
330
271
100
AcDbEntity
  8
\U+56FE\U+5C42 1
370
    35
  0
POLYLINE
  5
275
330
1F
100
AcDbEntity
  8
\U+56FE\U+5C42 1
 62
     7
420
 16777215
370
    35
100
AcDb2dPolyline
 66
     1
 10
0.0
 20
0.0
 30
0.0
  0
VERTEX
  5
276
330
275
100
AcDbEntity
  8
\U+56FE\U+5C42 1
 62
     7
420
 16777215
370
    35
100
AcDbVertex
100
AcDb2dVertex
 10
83.79126788269802
 20
135.377438659732
 30
0.0
  0
VERTEX
  5
277
330
275
100
AcDbEntity
  8
\U+56FE\U+5C42 1
 62
     7
420
 16777215
370
    35
100
AcDbVertex
100
AcDb2dVertex
 10
83.79126788269802
 20
135.4787244669984
 30
0.0
  0
SEQEND
  5
278
330
275
100
AcDbEntity
  8
\U+56FE\U+5C42 1
370
    35
  0
POLYLINE
  5
279
330
1F
100
AcDbEntity
  8
\U+56FE\U+5C42 1
 62
     7
420
 16777215
370
    35
100
AcDb2dPolyline
 66
     1
 10
0.0
 20
0.0
 30
0.0
  0
VERTEX
  5
27A
330
279
100
AcDbEntity
  8
\U+56FE\U+5C42 1
 62
     7
420
 16777215
370
    35
100
AcDbVertex
100
AcDb2dVertex
 10
83.68963756588315
 20
135.1741780261023
 30
0.0
  0
VERTEX
  5
27B
330
279
100
AcDbEntity
  8
\U+56FE\U+5C42 1
 62
     7
420
 16777215
370
    35
100
AcDbVertex
100
AcDb2dVertex
 10
81.14956866460844
 20
135.1741780261023
 30
0.0
  0
SEQEND
  5
27C
330
279
100
AcDbEntity
  8
\U+56FE\U+5C42 1
370
    35
  0
POLYLINE
  5
27D
330
1F
100
AcDbEntity
  8
\U+56FE\U+5C42 1
 62
     7
420
 16777215
370
    35
100
AcDb2dPolyline
 66
     1
 10
0.0
 20
0.0
 30
0.0
  0
VERTEX
  5
27E
330
27D
100
AcDbEntity
  8
\U+56FE\U+5C42 1
 62
     7
420
 16777215
370
    35
100
AcDbVertex
100
AcDb2dVertex
 10
83.68963756588315
 20
134.2595051747685
 30
0.0
  0
VERTEX
  5
27F
330
27D
100
AcDbEntity
  8
\U+56FE\U+5C42 1
 62
     7
420
 16777215
370
    35
100
AcDbVertex
100
AcDb2dVertex
 10
81.14956866460844
 20
134.2595051747685
 30
0.0
  0
SEQEND
  5
280
330
27D
100
AcDbEntity
  8
\U+56FE\U+5C42 1
370
    35
  0
POLYLINE
  5
281
330
1F
100
AcDbEntity
  8
\U+56FE\U+5C42 1
 62
     7
420
 16777215
370
    35
100
AcDb2dPolyline
 66
     1
 10
0.0
 20
0.0
 30
0.0
  0
VERTEX
  5
282
330
281
100
AcDbEntity
  8
\U+56FE\U+5C42 1
 62
     7
420
 16777215
370
    35
100
AcDbVertex
100
AcDb2dVertex
 10
151.7617960232575
 20
128.7731906145081
 30
0.0
  0
VERTEX
  5
283
330
281
100
AcDbEntity
  8
\U+56FE\U+5C42 1
 62
     7
420
 16777215
370
    35
100
AcDbVertex
100
AcDb2dVertex
 10
151.1520141223683
 20
129.2813421985825
 30
0.0
  0
SEQEND
  5
284
330
281
100
AcDbEntity
  8
\U+56FE\U+5C42 1
370
    35
  0
POLYLINE
  5
285
330
1F
100
AcDbEntity
  8
\U+56FE\U+5C42 1
 62
     7
420
 16777215
370
    35
100
AcDb2dPolyline
 66
     1
 10
0.0
 20
0.0
 30
0.0
  0
VERTEX
  5
286
330
285
100
AcDbEntity
  8
\U+56FE\U+5C42 1
 62
     7
420
 16777215
370
    35
100
AcDbVertex
100
AcDb2dVertex
 10
181.9366983594637
 20
137.4093559769324
 30
0.0
  0
VERTEX
  5
287
330
285
100
AcDbEntity
  8
\U+56FE\U+5C42 1
 62
     7
420
 16777215
370
    35
100
AcDbVertex
100
AcDb2dVertex
 10
88.05836315072847
 20
137.4093559769324
 30
0.0
  0
SEQEND
  5
288
330
285
100
AcDbEntity
  8
\U+56FE\U+5C42 1
370
    35
  0
POLYLINE
  5
289
330
1F
100
AcDbEntity
  8
\U+56FE\U+5C42 1
 62
     7
420
 16777215
370
    35
100
AcDb2dPolyline
 66
     1
 10
0.0
 20
0.0
 30
0.0
  0
VERTEX
  5
28A
330
289
100
AcDbEntity
  8
\U+56FE\U+5C42 1
 62
     7
420
 16777215
370
    35
100
AcDbVertex
100
AcDb2dVertex
 10
87.85544702664725
 20
137.4093559769324
 30
0.0
  0
VERTEX
  5
28B
330
289
100
AcDbEntity
  8
\U+56FE\U+5C42 1
 62
     7
420
 16777215
370
    35
100
AcDbVertex
100
AcDb2dVertex
 10
83.99452851632776
 20
137.3077256601175
 30
0.0
  0
SEQEND
  5
28C
330
289
100
AcDbEntity
  8
\U+56FE\U+5C42 1
370
    35
  0
POLYLINE
  5
28D
330
1F
100
AcDbEntity
  8
\U+56FE\U+5C42 1
 62
     7
420
 16777215
370
    35
100
AcDb2dPolyline
 66
     1
 10
0.0
 20
0.0
 30
0.0
  0
VERTEX
  5
28E
330
28D
100
AcDbEntity
  8
\U+56FE\U+5C42 1
 62
     7
420
 16777215
370
    35
100
AcDbVertex
100
AcDb2dVertex
 10
181.9366983594637
 20
137.4093559769324
 30
0.0
  0
VERTEX
  5
28F
330
28D
100
AcDbEntity
  8
\U+56FE\U+5C42 1
 62
     7
420
 16777215
370
    35
100
AcDbVertex
100
AcDb2dVertex
 10
185.1881794784425
 20
137.2060953433026
 30
0.0
  0
VERTEX
  5
290
330
28D
100
AcDbEntity
  8
\U+56FE\U+5C42 1
 62
     7
420
 16777215
370
    35
100
AcDbVertex
100
AcDb2dVertex
 10
193.4174790640588
 20
136.7995740760432
 30
0.0
  0
VERTEX
  5
291
330
28D
100
AcDbEntity
  8
\U+56FE\U+5C42 1
 62
     7
420
 16777215
370
    35
100
AcDbVertex
100
AcDb2dVertex
 10
202.155274743298
 20
136.2917670015173
 30
0.0
  0
VERTEX
  5
292
330
28D
100
AcDbEntity
  8
\U+56FE\U+5C42 1
 62
     7
420
 16777215
370
    35
100
AcDbVertex
100
AcDb2dVertex
 10
208.2513712044476
 20
135.7839599269915
 30
0.0
  0
VERTEX
  5
293
330
28D
100
AcDbEntity
  8
\U+56FE\U+5C42 1
 62
     7
420
 16777215
370
    35
100
AcDbVertex
100
AcDb2dVertex
 10
211.4007052422887
 20
135.2758083429172
 30
0.0
  0
SEQEND
  5
294
330
28D
100
AcDbEntity
  8
\U+56FE\U+5C42 1
370
    35
  0
POLYLINE
  5
295
330
1F
100
AcDbEntity
  8
\U+56FE\U+5C42 1
 62
     7
420
 16777215
370
    35
100
AcDb2dPolyline
 66
     1
 10
0.0
 20
0.0
 30
0.0
  0
VERTEX
  5
296
330
295
100
AcDbEntity
  8
\U+56FE\U+5C42 1
 62
     7
420
 16777215
370
    35
100
AcDbVertex
100
AcDb2dVertex
 10
210.38440207414
 20
134.1582193675021
 30
0.0
  0
VERTEX
  5
297
330
295
100
AcDbEntity
  8
\U+56FE\U+5C42 1
 62
     7
420
 16777215
370
    35
100
AcDbVertex
100
AcDb2dVertex
 10
212.0097981240809
 20
134.7676567588428
 30
0.0
  0
VERTEX
  5
298
330
295
100
AcDbEntity
  8
\U+56FE\U+5C42 1
 62
     7
420
 16777215
370
    35
100
AcDbVertex
100
AcDb2dVertex
 10
211.4007052422887
 20
135.2758083429172
 30
0.0
  0
SEQEND
  5
299
330
295
100
AcDbEntity
  8
\U+56FE\U+5C42 1
370
    35
  0
POLYLINE
  5
29A
330
1F
100
AcDbEntity
  8
\U+56FE\U+5C42 1
 62
     7
420
 16777215
370
    35
100
AcDb2dPolyline
 66
     1
 10
0.0
 20
0.0
 30
0.0
  0
VERTEX
  5
29B
330
29A
100
AcDbEntity
  8
\U+56FE\U+5C42 1
 62
     7
420
 16777215
370
    35
100
AcDbVertex
100
AcDb2dVertex
 10
183.5626111737274
 20
128.7731906145081
 30
0.0
  0
VERTEX
  5
29C
330
29A
100
AcDbEntity
  8
\U+56FE\U+5C42 1
 62
     7
420
 16777215
370
    35
100
AcDbVertex
100
AcDb2dVertex
 10
182.9528292728382
 20
129.2813421985825
 30
0.0
  0
VERTEX
  5
29D
330
29A
100
AcDbEntity
  8
\U+56FE\U+5C42 1
 62
     7
420
 16777215
370
    35
100
AcDbVertex
100
AcDb2dVertex
 10
184.4765950059642
 20
129.8907795899231
 30
0.0
  0
SEQEND
  5
29E
330
29A
100
AcDbEntity
  8
\U+56FE\U+5C42 1
370
    35
  0
POLYLINE
  5
29F
330
1F
100
AcDbEntity
  8
\U+56FE\U+5C42 1
 62
     7
420
 16777215
370
    35
100
AcDb2dPolyline
 66
     1
 10
0.0
 20
0.0
 30
0.0
  0
VERTEX
  5
2A0
330
29F
100
AcDbEntity
  8
\U+56FE\U+5C42 1
 62
     7
420
 16777215
370
    35
100
AcDbVertex
100
AcDb2dVertex
 10
183.5626111737274
 20
128.7731906145081
 30
0.0
  0
VERTEX
  5
2A1
330
29F
100
AcDbEntity
  8
\U+56FE\U+5C42 1
 62
     7
420
 16777215
370
    35
100
AcDbVertex
100
AcDb2dVertex
 10
186.7119452115685
 20
128.2650390304337
 30
0.0
  0
VERTEX
  5
2A2
330
29F
100
AcDbEntity
  8
\U+56FE\U+5C42 1
 62
     7
420
 16777215
370
    35
100
AcDbVertex
100
AcDb2dVertex
 10
192.8080416727181
 20
127.7568874463594
 30
0.0
  0
SEQEND
  5
2A3
330
29F
100
AcDbEntity
  8
\U+56FE\U+5C42 1
370
    35
  0
POLYLINE
  5
2A4
330
1F
100
AcDbEntity
  8
\U+56FE\U+5C42 1
 62
     7
420
 16777215
370
    35
100
AcDb2dPolyline
 66
     1
 10
0.0
 20
0.0
 30
0.0
  0
VERTEX
  5
2A5
330
2A4
100
AcDbEntity
  8
\U+56FE\U+5C42 1
 62
     7
420
 16777215
370
    35
100
AcDbVertex
100
AcDb2dVertex
 10
303.6541611654059
 20
126.7412732973077
 30
0.0
  0
VERTEX
  5
2A6
330
2A4
100
AcDbEntity
  8
\U+56FE\U+5C42 1
 62
     7
420
 16777215
370
    35
100
AcDbVertex
100
AcDb2dVertex
 10
303.4502115126791
 20
126.7412732973077
 30
0.0
  0
SEQEND
  5
2A7
330
2A4
100
AcDbEntity
  8
\U+56FE\U+5C42 1
370
    35
  0
POLYLINE
  5
2A8
330
1F
100
AcDbEntity
  8
\U+56FE\U+5C42 1
 62
     7
420
 16777215
370
    35
100
AcDb2dPolyline
 66
     1
 10
0.0
 20
0.0
 30
0.0
  0
VERTEX
  5
2A9
330
2A8
100
AcDbEntity
  8
\U+56FE\U+5C42 1
 62
     7
420
 16777215
370
    35
100
AcDbVertex
100
AcDb2dVertex
 10
303.4502115126791
 20
126.6396429804929
 30
0.0
  0
VERTEX
  5
2AA
330
2A8
100
AcDbEntity
  8
\U+56FE\U+5C42 1
 62
     7
420
 16777215
370
    35
100
AcDbVertex
100
AcDb2dVertex
 10
213.0261012922296
 20
126.6396429804929
 30
0.0
  0
SEQEND
  5
2AB
330
2A8
100
AcDbEntity
  8
\U+56FE\U+5C42 1
370
    35
  0
POLYLINE
  5
2AC
330
1F
100
AcDbEntity
  8
\U+56FE\U+5C42 1
 62
     7
420
 16777215
370
    35
100
AcDb2dPolyline
 66
     1
 10
0.0
 20
0.0
 30
0.0
  0
VERTEX
  5
2AD
330
2AC
100
AcDbEntity
  8
\U+56FE\U+5C42 1
 62
     7
420
 16777215
370
    35
100
AcDbVertex
100
AcDb2dVertex
 10
307.5140461470799
 20
126.6396429804929
 30
0.0
  0
VERTEX
  5
2AE
330
2AC
100
AcDbEntity
  8
\U+56FE\U+5C42 1
 62
     7
420
 16777215
370
    35
100
AcDbVertex
100
AcDb2dVertex
 10
303.7554469726722
 20
126.6396429804929
 30
0.0
  0
SEQEND
  5
2AF
330
2AC
100
AcDbEntity
  8
\U+56FE\U+5C42 1
370
    35
  0
POLYLINE
  5
2B0
330
1F
100
AcDbEntity
  8
\U+56FE\U+5C42 1
 62
     7
420
 16777215
370
    35
100
AcDb2dPolyline
 66
     1
 10
0.0
 20
0.0
 30
0.0
  0
VERTEX
  5
2B1
330
2B0
100
AcDbEntity
  8
\U+56FE\U+5C42 1
 62
     7
420
 16777215
370
    35
100
AcDbVertex
100
AcDb2dVertex
 10
213.0261012922296
 20
126.6396429804929
 30
0.0
  0
VERTEX
  5
2B2
330
2B0
100
AcDbEntity
  8
\U+56FE\U+5C42 1
 62
     7
420
 16777215
370
    35
100
AcDbVertex
100
AcDb2dVertex
 10
209.7751369375736
 20
126.8429036141226
 30
0.0
  0
VERTEX
  5
2B3
330
2B0
100
AcDbEntity
  8
\U+56FE\U+5C42 1
 62
     7
420
 16777215
370
    35
100
AcDbVertex
100
AcDb2dVertex
 10
201.5458373519573
 20
127.2494248813821
 30
0.0
  0
VERTEX
  5
2B4
330
2B0
100
AcDbEntity
  8
\U+56FE\U+5C42 1
 62
     7
420
 16777215
370
    35
100
AcDbVertex
100
AcDb2dVertex
 10
192.8080416727181
 20
127.7568874463594
 30
0.0
  0
SEQEND
  5
2B5
330
2B0
100
AcDbEntity
  8
\U+56FE\U+5C42 1
370
    35
  0
POLYLINE
  5
2B6
330
1F
100
AcDbEntity
  8
\U+56FE\U+5C42 1
 62
     7
420
 16777215
370
    35
100
AcDb2dPolyline
 66
     1
 10
0.0
 20
0.0
 30
0.0
  0
VERTEX
  5
2B7
330
2B6
100
AcDbEntity
  8
\U+56FE\U+5C42 1
 62
     7
420
 16777215
370
    35
100
AcDbVertex
100
AcDb2dVertex
 10
243.7101887411558
 20
134.7676567588428
 30
0.0
  0
VERTEX
  5
2B8
330
2B6
100
AcDbEntity
  8
\U+56FE\U+5C42 1
 62
     7
420
 16777215
370
    35
100
AcDbVertex
100
AcDb2dVertex
 10
242.1853894793842
 20
134.1582193675021
 30
0.0
  0
SEQEND
  5
2B9
330
2B6
100
AcDbEntity
  8
\U+56FE\U+5C42 1
370
    35
  0
POLYLINE
  5
2BA
330
1F
100
AcDbEntity
  8
\U+56FE\U+5C42 1
 62
     7
420
 16777215
370
    35
100
AcDb2dPolyline
 66
     1
 10
0.0
 20
0.0
 30
0.0
  0
VERTEX
  5
2BB
330
2BA
100
AcDbEntity
  8
\U+56FE\U+5C42 1
 62
     7
420
 16777215
370
    35
100
AcDbVertex
100
AcDb2dVertex
 10
307.7179957998066
 20
128.6715602976932
 30
0.0
  0
VERTEX
  5
2BC
330
2BA
100
AcDbEntity
  8
\U+56FE\U+5C42 1
 62
     7
420
 16777215
370
    35
100
AcDbVertex
100
AcDb2dVertex
 10
307.7179957998066
 20
128.7731906145081
 30
0.0
  0
SEQEND
  5
2BD
330
2BA
100
AcDbEntity
  8
\U+56FE\U+5C42 1
370
    35
  0
POLYLINE
  5
2BE
330
1F
100
AcDbEntity
  8
\U+56FE\U+5C42 1
 62
     7
420
 16777215
370
    35
100
AcDb2dPolyline
 66
     1
 10
0.0
 20
0.0
 30
0.0
  0
VERTEX
  5
2BF
330
2BE
100
AcDbEntity
  8
\U+56FE\U+5C42 1
 62
     7
420
 16777215
370
    35
100
AcDbVertex
100
AcDb2dVertex
 10
307.7179957998066
 20
129.992409906738
 30
0.0
  0
VERTEX
  5
2C0
330
2BE
100
AcDbEntity
  8
\U+56FE\U+5C42 1
 62
     7
420
 16777215
370
    35
100
AcDbVertex
100
AcDb2dVertex
 10
307.7179957998066
 20
130.0940402235529
 30
0.0
  0
SEQEND
  5
2C1
330
2BE
100
AcDbEntity
  8
\U+56FE\U+5C42 1
370
    35
  0
POLYLINE
  5
2C2
330
1F
100
AcDbEntity
  8
\U+56FE\U+5C42 1
 62
     7
420
 16777215
370
    35
100
AcDb2dPolyline
 66
     1
 10
0.0
 20
0.0
 30
0.0
  0
VERTEX
  5
2C3
330
2C2
100
AcDbEntity
  8
\U+56FE\U+5C42 1
 62
     7
420
 16777215
370
    35
100
AcDbVertex
100
AcDb2dVertex
 10
310.4609808251626
 20
129.7894937826568
 30
0.0
  0
VERTEX
  5
2C4
330
2C2
100
AcDbEntity
  8
\U+56FE\U+5C42 1
 62
     7
420
 16777215
370
    35
100
AcDbVertex
100
AcDb2dVertex
 10
307.819281607073
 20
129.7894937826568
 30
0.0
  0
SEQEND
  5
2C5
330
2C2
100
AcDbEntity
  8
\U+56FE\U+5C42 1
370
    35
  0
POLYLINE
  5
2C6
330
1F
100
AcDbEntity
  8
\U+56FE\U+5C42 1
 62
     7
420
 16777215
370
    35
100
AcDb2dPolyline
 66
     1
 10
0.0
 20
0.0
 30
0.0
  0
VERTEX
  5
2C7
330
2C6
100
AcDbEntity
  8
\U+56FE\U+5C42 1
 62
     7
420
 16777215
370
    35
100
AcDbVertex
100
AcDb2dVertex
 10
310.4609808251626
 20
128.874820931323
 30
0.0
  0
VERTEX
  5
2C8
330
2C6
100
AcDbEntity
  8
\U+56FE\U+5C42 1
 62
     7
420
 16777215
370
    35
100
AcDbVertex
100
AcDb2dVertex
 10
307.819281607073
 20
128.874820931323
 30
0.0
  0
SEQEND
  5
2C9
330
2C6
100
AcDbEntity
  8
\U+56FE\U+5C42 1
370
    35
  0
POLYLINE
  5
2CA
330
1F
100
AcDbEntity
  8
\U+56FE\U+5C42 1
 62
     7
420
 16777215
370
    35
100
AcDb2dPolyline
 66
     1
 10
0.0
 20
0.0
 30
0.0
  0
VERTEX
  5
2CB
330
2CA
100
AcDbEntity
  8
\U+56FE\U+5C42 1
 62
     7
420
 16777215
370
    35
100
AcDbVertex
100
AcDb2dVertex
 10
243.2016926475329
 20
135.2758083429172
 30
0.0
  0
VERTEX
  5
2CC
330
2CA
100
AcDbEntity
  8
\U+56FE\U+5C42 1
 62
     7
420
 16777215
370
    35
100
AcDbVertex
100
AcDb2dVertex
 10
243.7101887411558
 20
134.7676567588428
 30
0.0
  0
SEQEND
  5
2CD
330
2CA
100
AcDbEntity
  8
\U+56FE\U+5C42 1
370
    35
  0
POLYLINE
  5
2CE
330
1F
100
AcDbEntity
  8
\U+56FE\U+5C42 1
 62
     7
420
 16777215
370
    35
100
AcDb2dPolyline
 66
     1
 10
0.0
 20
0.0
 30
0.0
  0
VERTEX
  5
2CF
330
2CE
100
AcDbEntity
  8
\U+56FE\U+5C42 1
 62
     7
420
 16777215
370
    35
100
AcDbVertex
100
AcDb2dVertex
 10
242.1853894793842
 20
134.1582193675021
 30
0.0
  0
VERTEX
  5
2D0
330
2CE
100
AcDbEntity
  8
\U+56FE\U+5C42 1
 62
     7
420
 16777215
370
    35
100
AcDbVertex
100
AcDb2dVertex
 10
238.8326225531391
 20
133.6500677834278
 30
0.0
  0
VERTEX
  5
2D1
330
2CE
100
AcDbEntity
  8
\U+56FE\U+5C42 1
 62
     7
420
 16777215
370
    35
100
AcDbVertex
100
AcDb2dVertex
 10
233.9557453842194
 20
133.1422607089019
 30
0.0
  0
SEQEND
  5
2D2
330
2CE
100
AcDbEntity
  8
\U+56FE\U+5C42 1
370
    35
  0
POLYLINE
  5
2D3
330
1F
100
AcDbEntity
  8
\U+56FE\U+5C42 1
 62
     7
420
 16777215
370
    35
100
AcDb2dPolyline
 66
     1
 10
0.0
 20
0.0
 30
0.0
  0
VERTEX
  5
2D4
330
2D3
100
AcDbEntity
  8
\U+56FE\U+5C42 1
 62
     7
420
 16777215
370
    35
100
AcDbVertex
100
AcDb2dVertex
 10
227.8599934326184
 20
132.7357394416425
 30
0.0
  0
VERTEX
  5
2D5
330
2D3
100
AcDbEntity
  8
\U+56FE\U+5C42 1
 62
     7
420
 16777215
370
    35
100
AcDbVertex
100
AcDb2dVertex
 10
220.849913139232
 20
132.329218174383
 30
0.0
  0
SEQEND
  5
2D6
330
2D3
100
AcDbEntity
  8
\U+56FE\U+5C42 1
370
    35
  0
POLYLINE
  5
2D7
330
1F
100
AcDbEntity
  8
\U+56FE\U+5C42 1
 62
     7
420
 16777215
370
    35
100
AcDb2dPolyline
 66
     1
 10
0.0
 20
0.0
 30
0.0
  0
VERTEX
  5
2D8
330
2D7
100
AcDbEntity
  8
\U+56FE\U+5C42 1
 62
     7
420
 16777215
370
    35
100
AcDbVertex
100
AcDb2dVertex
 10
198.9041381338677
 20
131.3132595157828
 30
0.0
  0
VERTEX
  5
2D9
330
2D7
100
AcDbEntity
  8
\U+56FE\U+5C42 1
 62
     7
420
 16777215
370
    35
100
AcDbVertex
100
AcDb2dVertex
 10
192.8080416727181
 20
130.9067382485233
 30
0.0
  0
SEQEND
  5
2DA
330
2D7
100
AcDbEntity
  8
\U+56FE\U+5C42 1
370
    35
  0
POLYLINE
  5
2DB
330
1F
100
AcDbEntity
  8
\U+56FE\U+5C42 1
 62
     7
420
 16777215
370
    35
100
AcDb2dPolyline
 66
     1
 10
0.0
 20
0.0
 30
0.0
  0
VERTEX
  5
2DC
330
2DB
100
AcDbEntity
  8
\U+56FE\U+5C42 1
 62
     7
420
 16777215
370
    35
100
AcDbVertex
100
AcDb2dVertex
 10
233.9557453842194
 20
133.1422607089019
 30
0.0
  0
VERTEX
  5
2DD
330
2DB
100
AcDbEntity
  8
\U+56FE\U+5C42 1
 62
     7
420
 16777215
370
    35
100
AcDbVertex
100
AcDb2dVertex
 10
227.8599934326184
 20
132.7357394416425
 30
0.0
  0
SEQEND
  5
2DE
330
2DB
100
AcDbEntity
  8
\U+56FE\U+5C42 1
370
    35
  0
POLYLINE
  5
2DF
330
1F
100
AcDbEntity
  8
\U+56FE\U+5C42 1
 62
     7
420
 16777215
370
    35
100
AcDb2dPolyline
 66
     1
 10
0.0
 20
0.0
 30
0.0
  0
VERTEX
  5
2E0
330
2DF
100
AcDbEntity
  8
\U+56FE\U+5C42 1
 62
     7
420
 16777215
370
    35
100
AcDbVertex
100
AcDb2dVertex
 10
192.8080416727181
 20
130.9067382485233
 30
0.0
  0
VERTEX
  5
2E1
330
2DF
100
AcDbEntity
  8
\U+56FE\U+5C42 1
 62
     7
420
 16777215
370
    35
100
AcDbVertex
100
AcDb2dVertex
 10
187.8295341869836
 20
130.398586664449
 30
0.0
  0
SEQEND
  5
2E2
330
2DF
100
AcDbEntity
  8
\U+56FE\U+5C42 1
370
    35
  0
POLYLINE
  5
2E3
330
1F
100
AcDbEntity
  8
\U+56FE\U+5C42 1
 62
     7
420
 16777215
370
    35
100
AcDb2dPolyline
 66
     1
 10
0.0
 20
0.0
 30
0.0
  0
VERTEX
  5
2E4
330
2E3
100
AcDbEntity
  8
\U+56FE\U+5C42 1
 62
     7
420
 16777215
370
    35
100
AcDbVertex
100
AcDb2dVertex
 10
198.9041381338677
 20
131.3132595157828
 30
0.0
  0
VERTEX
  5
2E5
330
2E3
100
AcDbEntity
  8
\U+56FE\U+5C42 1
 62
     7
420
 16777215
370
    35
100
AcDbVertex
100
AcDb2dVertex
 10
205.9149074463512
 20
131.7194362734938
 30
0.0
  0
VERTEX
  5
2E6
330
2E3
100
AcDbEntity
  8
\U+56FE\U+5C42 1
 62
     7
420
 16777215
370
    35
100
AcDbVertex
100
AcDb2dVertex
 10
220.849913139232
 20
132.329218174383
 30
0.0
  0
SEQEND
  5
2E7
330
2E3
100
AcDbEntity
  8
\U+56FE\U+5C42 1
370
    35
  0
POLYLINE
  5
2E8
330
1F
100
AcDbEntity
  8
\U+56FE\U+5C42 1
 62
     7
420
 16777215
370
    35
100
AcDb2dPolyline
 66
     1
 10
0.0
 20
0.0
 30
0.0
  0
VERTEX
  5
2E9
330
2E8
100
AcDbEntity
  8
\U+56FE\U+5C42 1
 62
     7
420
 16777215
370
    35
100
AcDbVertex
100
AcDb2dVertex
 10
307.7179957998066
 20
135.377438659732
 30
0.0
  0
VERTEX
  5
2EA
330
2E8
100
AcDbEntity
  8
\U+56FE\U+5C42 1
 62
     7
420
 16777215
370
    35
100
AcDbVertex
100
AcDb2dVertex
 10
307.7179957998066
 20
135.4787244669984
 30
0.0
  0
SEQEND
  5
2EB
330
2E8
100
AcDbEntity
  8
\U+56FE\U+5C42 1
370
    35
  0
POLYLINE
  5
2EC
330
1F
100
AcDbEntity
  8
\U+56FE\U+5C42 1
 62
     7
420
 16777215
370
    35
100
AcDb2dPolyline
 66
     1
 10
0.0
 20
0.0
 30
0.0
  0
VERTEX
  5
2ED
330
2EC
100
AcDbEntity
  8
\U+56FE\U+5C42 1
 62
     7
420
 16777215
370
    35
100
AcDbVertex
100
AcDb2dVertex
 10
310.4609808251626
 20
135.1741780261023
 30
0.0
  0
VERTEX
  5
2EE
330
2EC
100
AcDbEntity
  8
\U+56FE\U+5C42 1
 62
     7
420
 16777215
370
    35
100
AcDbVertex
100
AcDb2dVertex
 10
307.819281607073
 20
135.1741780261023
 30
0.0
  0
SEQEND
  5
2EF
330
2EC
100
AcDbEntity
  8
\U+56FE\U+5C42 1
370
    35
  0
POLYLINE
  5
2F0
330
1F
100
AcDbEntity
  8
\U+56FE\U+5C42 1
 62
     7
420
 16777215
370
    35
100
AcDb2dPolyline
 66
     1
 10
0.0
 20
0.0
 30
0.0
  0
VERTEX
  5
2F1
330
2F0
100
AcDbEntity
  8
\U+56FE\U+5C42 1
 62
     7
420
 16777215
370
    35
100
AcDbVertex
100
AcDb2dVertex
 10
310.4609808251626
 20
134.2595051747685
 30
0.0
  0
VERTEX
  5
2F2
330
2F0
100
AcDbEntity
  8
\U+56FE\U+5C42 1
 62
     7
420
 16777215
370
    35
100
AcDbVertex
100
AcDb2dVertex
 10
307.819281607073
 20
134.2595051747685
 30
0.0
  0
SEQEND
  5
2F3
330
2F0
100
AcDbEntity
  8
\U+56FE\U+5C42 1
370
    35
  0
POLYLINE
  5
2F4
330
1F
100
AcDbEntity
  8
\U+56FE\U+5C42 1
 62
     7
420
 16777215
370
    35
100
AcDb2dPolyline
 66
     1
 10
0.0
 20
0.0
 30
0.0
  0
VERTEX
  5
2F5
330
2F4
100
AcDbEntity
  8
\U+56FE\U+5C42 1
 62
     7
420
 16777215
370
    35
100
AcDbVertex
100
AcDb2dVertex
 10
307.7179957998066
 20
134.0565890506873
 30
0.0
  0
VERTEX
  5
2F6
330
2F4
100
AcDbEntity
  8
\U+56FE\U+5C42 1
 62
     7
420
 16777215
370
    35
100
AcDbVertex
100
AcDb2dVertex
 10
307.7179957998066
 20
134.1582193675021
 30
0.0
  0
SEQEND
  5
2F7
330
2F4
100
AcDbEntity
  8
\U+56FE\U+5C42 1
370
    35
  0
POLYLINE
  5
2F8
330
1F
100
AcDbEntity
  8
\U+56FE\U+5C42 1
 62
     7
420
 16777215
370
    35
100
AcDb2dPolyline
 66
     1
 10
0.0
 20
0.0
 30
0.0
  0
VERTEX
  5
2F9
330
2F8
100
AcDbEntity
  8
\U+56FE\U+5C42 1
 62
     7
420
 16777215
370
    35
100
AcDbVertex
100
AcDb2dVertex
 10
303.6541611654059
 20
137.2060953433026
 30
0.0
  0
VERTEX
  5
2FA
330
2F8
100
AcDbEntity
  8
\U+56FE\U+5C42 1
 62
     7
420
 16777215
370
    35
100
AcDbVertex
100
AcDb2dVertex
 10
303.4502115126791
 20
137.2060953433026
 30
0.0
  0
SEQEND
  5
2FB
330
2F8
100
AcDbEntity
  8
\U+56FE\U+5C42 1
370
    35
  0
POLYLINE
  5
2FC
330
1F
100
AcDbEntity
  8
\U+56FE\U+5C42 1
 62
     7
420
 16777215
370
    35
100
AcDb2dPolyline
 66
     1
 10
0.0
 20
0.0
 30
0.0
  0
VERTEX
  5
2FD
330
2FC
100
AcDbEntity
  8
\U+56FE\U+5C42 1
 62
     7
420
 16777215
370
    35
100
AcDbVertex
100
AcDb2dVertex
 10
213.6365722122159
 20
137.4093559769324
 30
0.0
  0
VERTEX
  5
2FE
330
2FC
100
AcDbEntity
  8
\U+56FE\U+5C42 1
 62
     7
420
 16777215
370
    35
100
AcDbVertex
100
AcDb2dVertex
 10
216.988650119364
 20
137.2060953433026
 30
0.0
  0
VERTEX
  5
2FF
330
2FC
100
AcDbEntity
  8
\U+56FE\U+5C42 1
 62
     7
420
 16777215
370
    35
100
AcDbVertex
100
AcDb2dVertex
 10
225.2182942145288
 20
136.7995740760432
 30
0.0
  0
VERTEX
  5
300
330
2FC
100
AcDbEntity
  8
\U+56FE\U+5C42 1
 62
     7
420
 16777215
370
    35
100
AcDbVertex
100
AcDb2dVertex
 10
233.9557453842194
 20
136.2917670015173
 30
0.0
  0
VERTEX
  5
301
330
2FC
100
AcDbEntity
  8
\U+56FE\U+5C42 1
 62
     7
420
 16777215
370
    35
100
AcDbVertex
100
AcDb2dVertex
 10
240.0521863549175
 20
135.7839599269915
 30
0.0
  0
VERTEX
  5
302
330
2FC
100
AcDbEntity
  8
\U+56FE\U+5C42 1
 62
     7
420
 16777215
370
    35
100
AcDbVertex
100
AcDb2dVertex
 10
243.2016926475329
 20
135.2758083429172
 30
0.0
  0
SEQEND
  5
303
330
2FC
100
AcDbEntity
  8
\U+56FE\U+5C42 1
370
    35
  0
POLYLINE
  5
304
330
1F
100
AcDbEntity
  8
\U+56FE\U+5C42 1
 62
     7
420
 16777215
370
    35
100
AcDb2dPolyline
 66
     1
 10
0.0
 20
0.0
 30
0.0
  0
VERTEX
  5
305
330
304
100
AcDbEntity
  8
\U+56FE\U+5C42 1
 62
     7
420
 16777215
370
    35
100
AcDbVertex
100
AcDb2dVertex
 10
187.8295341869836
 20
130.398586664449
 30
0.0
  0
VERTEX
  5
306
330
304
100
AcDbEntity
  8
\U+56FE\U+5C42 1
 62
     7
420
 16777215
370
    35
100
AcDbVertex
100
AcDb2dVertex
 10
184.4765950059642
 20
129.8907795899231
 30
0.0
  0
SEQEND
  5
307
330
304
100
AcDbEntity
  8
\U+56FE\U+5C42 1
370
    35
  0
POLYLINE
  5
308
330
1F
100
AcDbEntity
  8
\U+56FE\U+5C42 1
 62
     7
420
 16777215
370
    35
100
AcDb2dPolyline
 66
     1
 10
0.0
 20
0.0
 30
0.0
  0
VERTEX
  5
309
330
308
100
AcDbEntity
  8
\U+56FE\U+5C42 1
 62
     7
420
 16777215
370
    35
100
AcDbVertex
100
AcDb2dVertex
 10
310.6635524396953
 20
129.6875189562934
 30
0.0
  0
VERTEX
  5
30A
330
308
100
AcDbEntity
  8
\U+56FE\U+5C42 1
 62
     7
420
 16777215
370
    35
100
AcDbVertex
100
AcDb2dVertex
 10
310.6635524396953
 20
128.9764512481378
 30
0.0
  0
SEQEND
  5
30B
330
308
100
AcDbEntity
  8
\U+56FE\U+5C42 1
370
    35
  0
POLYLINE
  5
30C
330
1F
100
AcDbEntity
  8
\U+56FE\U+5C42 1
 62
     7
420
 16777215
370
    35
100
AcDb2dPolyline
 66
     1
 10
0.0
 20
0.0
 30
0.0
  0
VERTEX
  5
30D
330
30C
100
AcDbEntity
  8
\U+56FE\U+5C42 1
 62
     7
420
 16777215
370
    35
100
AcDbVertex
100
AcDb2dVertex
 10
310.6635524396953
 20
135.0722031997389
 30
0.0
  0
VERTEX
  5
30E
330
30C
100
AcDbEntity
  8
\U+56FE\U+5C42 1
 62
     7
420
 16777215
370
    35
100
AcDbVertex
100
AcDb2dVertex
 10
310.6635524396953
 20
134.3611354915833
 30
0.0
  0
SEQEND
  5
30F
330
30C
100
AcDbEntity
  8
\U+56FE\U+5C42 1
370
    35
  0
POLYLINE
  5
310
330
1F
100
AcDbEntity
  8
\U+56FE\U+5C42 1
 62
     7
420
 16777215
370
    35
100
AcDb2dPolyline
 66
     1
 10
0.0
 20
0.0
 30
0.0
  0
VERTEX
  5
311
330
310
100
AcDbEntity
  8
\U+56FE\U+5C42 1
 62
     7
420
 16777215
370
    35
100
AcDbVertex
100
AcDb2dVertex
 10
310.4609808251626
 20
129.7894937826568
 30
0.0
  0
VERTEX
  5
312
330
310
100
AcDbEntity
  8
\U+56FE\U+5C42 1
 62
     7
420
 16777215
370
    35
100
AcDbVertex
100
AcDb2dVertex
 10
310.4609808251626
 20
128.874820931323
 30
0.0
  0
SEQEND
  5
313
330
310
100
AcDbEntity
  8
\U+56FE\U+5C42 1
370
    35
  0
POLYLINE
  5
314
330
1F
100
AcDbEntity
  8
\U+56FE\U+5C42 1
 62
     7
420
 16777215
370
    35
100
AcDb2dPolyline
 66
     1
 10
0.0
 20
0.0
 30
0.0
  0
VERTEX
  5
315
330
314
100
AcDbEntity
  8
\U+56FE\U+5C42 1
 62
     7
420
 16777215
370
    35
100
AcDbVertex
100
AcDb2dVertex
 10
310.4609808251626
 20
135.1741780261023
 30
0.0
  0
VERTEX
  5
316
330
314
100
AcDbEntity
  8
\U+56FE\U+5C42 1
 62
     7
420
 16777215
370
    35
100
AcDbVertex
100
AcDb2dVertex
 10
310.4609808251626
 20
134.2595051747685
 30
0.0
  0
SEQEND
  5
317
330
314
100
AcDbEntity
  8
\U+56FE\U+5C42 1
370
    35
  0
POLYLINE
  5
318
330
1F
100
AcDbEntity
  8
\U+56FE\U+5C42 1
 62
     7
420
 16777215
370
    35
100
AcDb2dPolyline
 66
     1
 10
0.0
 20
0.0
 30
0.0
  0
VERTEX
  5
319
330
318
100
AcDbEntity
  8
\U+56FE\U+5C42 1
 62
     7
420
 16777215
370
    35
100
AcDbVertex
100
AcDb2dVertex
 10
307.819281607073
 20
129.8907795899231
 30
0.0
  0
VERTEX
  5
31A
330
318
100
AcDbEntity
  8
\U+56FE\U+5C42 1
 62
     7
420
 16777215
370
    35
100
AcDbVertex
100
AcDb2dVertex
 10
307.819281607073
 20
128.7731906145081
 30
0.0
  0
SEQEND
  5
31B
330
318
100
AcDbEntity
  8
\U+56FE\U+5C42 1
370
    35
  0
POLYLINE
  5
31C
330
1F
100
AcDbEntity
  8
\U+56FE\U+5C42 1
 62
     7
420
 16777215
370
    35
100
AcDb2dPolyline
 66
     1
 10
0.0
 20
0.0
 30
0.0
  0
VERTEX
  5
31D
330
31C
100
AcDbEntity
  8
\U+56FE\U+5C42 1
 62
     7
420
 16777215
370
    35
100
AcDbVertex
100
AcDb2dVertex
 10
307.819281607073
 20
135.2758083429172
 30
0.0
  0
VERTEX
  5
31E
330
31C
100
AcDbEntity
  8
\U+56FE\U+5C42 1
 62
     7
420
 16777215
370
    35
100
AcDbVertex
100
AcDb2dVertex
 10
307.819281607073
 20
134.1582193675021
 30
0.0
  0
SEQEND
  5
31F
330
31C
100
AcDbEntity
  8
\U+56FE\U+5C42 1
370
    35
  0
POLYLINE
  5
320
330
1F
100
AcDbEntity
  8
\U+56FE\U+5C42 1
 62
     7
420
 16777215
370
    35
100
AcDb2dPolyline
 66
     1
 10
0.0
 20
0.0
 30
0.0
  0
VERTEX
  5
321
330
320
100
AcDbEntity
  8
\U+56FE\U+5C42 1
 62
     7
420
 16777215
370
    35
100
AcDbVertex
100
AcDb2dVertex
 10
307.7179957998066
 20
129.992409906738
 30
0.0
  0
VERTEX
  5
322
330
320
100
AcDbEntity
  8
\U+56FE\U+5C42 1
 62
     7
420
 16777215
370
    35
100
AcDbVertex
100
AcDb2dVertex
 10
307.7179957998066
 20
128.6715602976932
 30
0.0
  0
SEQEND
  5
323
330
320
100
AcDbEntity
  8
\U+56FE\U+5C42 1
370
    35
  0
POLYLINE
  5
324
330
1F
100
AcDbEntity
  8
\U+56FE\U+5C42 1
 62
     7
420
 16777215
370
    35
100
AcDb2dPolyline
 66
     1
 10
0.0
 20
0.0
 30
0.0
  0
VERTEX
  5
325
330
324
100
AcDbEntity
  8
\U+56FE\U+5C42 1
 62
     7
420
 16777215
370
    35
100
AcDbVertex
100
AcDb2dVertex
 10
307.7179957998066
 20
135.377438659732
 30
0.0
  0
VERTEX
  5
326
330
324
100
AcDbEntity
  8
\U+56FE\U+5C42 1
 62
     7
420
 16777215
370
    35
100
AcDbVertex
100
AcDb2dVertex
 10
307.7179957998066
 20
134.0565890506873
 30
0.0
  0
SEQEND
  5
327
330
324
100
AcDbEntity
  8
\U+56FE\U+5C42 1
370
    35
  0
POLYLINE
  5
328
330
1F
100
AcDbEntity
  8
\U+56FE\U+5C42 1
 62
     7
420
 16777215
370
    35
100
AcDb2dPolyline
 66
     1
 10
0.0
 20
0.0
 30
0.0
  0
VERTEX
  5
329
330
328
100
AcDbEntity
  8
\U+56FE\U+5C42 1
 62
     7
420
 16777215
370
    35
100
AcDbVertex
100
AcDb2dVertex
 10
307.7179957998066
 20
137.1048095360363
 30
0.0
  0
VERTEX
  5
32A
330
328
100
AcDbEntity
  8
\U+56FE\U+5C42 1
 62
     7
420
 16777215
370
    35
100
AcDbVertex
100
AcDb2dVertex
 10
307.7179957998066
 20
126.944189421389
 30
0.0
  0
SEQEND
  5
32B
330
328
100
AcDbEntity
  8
\U+56FE\U+5C42 1
370
    35
  0
POLYLINE
  5
32C
330
1F
100
AcDbEntity
  8
\U+56FE\U+5C42 1
 62
     7
420
 16777215
370
    35
100
AcDb2dPolyline
 66
     1
 10
0.0
 20
0.0
 30
0.0
  0
VERTEX
  5
32D
330
32C
100
AcDbEntity
  8
\U+56FE\U+5C42 1
 62
     7
420
 16777215
370
    35
100
AcDbVertex
100
AcDb2dVertex
 10
307.5140461470799
 20
137.3077256601175
 30
0.0
  0
VERTEX
  5
32E
330
32C
100
AcDbEntity
  8
\U+56FE\U+5C42 1
 62
     7
420
 16777215
370
    35
100
AcDbVertex
100
AcDb2dVertex
 10
307.5140461470799
 20
126.6396429804929
 30
0.0
  0
SEQEND
  5
32F
330
32C
100
AcDbEntity
  8
\U+56FE\U+5C42 1
370
    35
  0
POLYLINE
  5
330
330
1F
100
AcDbEntity
  8
\U+56FE\U+5C42 1
 62
     7
420
 16777215
370
    35
100
AcDb2dPolyline
 66
     1
 10
0.0
 20
0.0
 30
0.0
  0
VERTEX
  5
331
330
330
100
AcDbEntity
  8
\U+56FE\U+5C42 1
 62
     7
420
 16777215
370
    35
100
AcDbVertex
100
AcDb2dVertex
 10
303.7554469726722
 20
126.6396429804929
 30
0.0
  0
VERTEX
  5
332
330
330
100
AcDbEntity
  8
\U+56FE\U+5C42 1
 62
     7
420
 16777215
370
    35
100
AcDbVertex
100
AcDb2dVertex
 10
303.7554469726722
 20
137.4093559769324
 30
0.0
  0
SEQEND
  5
333
330
330
100
AcDbEntity
  8
\U+56FE\U+5C42 1
370
    35
  0
POLYLINE
  5
334
330
1F
100
AcDbEntity
  8
\U+56FE\U+5C42 1
 62
     7
420
 16777215
370
    35
100
AcDb2dPolyline
 66
     1
 10
0.0
 20
0.0
 30
0.0
  0
VERTEX
  5
335
330
334
100
AcDbEntity
  8
\U+56FE\U+5C42 1
 62
     7
420
 16777215
370
    35
100
AcDbVertex
100
AcDb2dVertex
 10
303.6541611654059
 20
126.7412732973077
 30
0.0
  0
VERTEX
  5
336
330
334
100
AcDbEntity
  8
\U+56FE\U+5C42 1
 62
     7
420
 16777215
370
    35
100
AcDbVertex
100
AcDb2dVertex
 10
303.6541611654059
 20
137.3077256601175
 30
0.0
  0
SEQEND
  5
337
330
334
100
AcDbEntity
  8
\U+56FE\U+5C42 1
370
    35
  0
POLYLINE
  5
338
330
1F
100
AcDbEntity
  8
\U+56FE\U+5C42 1
 62
     7
420
 16777215
370
    35
100
AcDb2dPolyline
 66
     1
 10
0.0
 20
0.0
 30
0.0
  0
VERTEX
  5
339
330
338
100
AcDbEntity
  8
\U+56FE\U+5C42 1
 62
     7
420
 16777215
370
    35
100
AcDbVertex
100
AcDb2dVertex
 10
303.4502115126791
 20
137.4093559769324
 30
0.0
  0
VERTEX
  5
33A
330
338
100
AcDbEntity
  8
\U+56FE\U+5C42 1
 62
     7
420
 16777215
370
    35
100
AcDbVertex
100
AcDb2dVertex
 10
303.4502115126791
 20
126.6396429804929
 30
0.0
  0
SEQEND
  5
33B
330
338
100
AcDbEntity
  8
\U+56FE\U+5C42 1
370
    35
  0
POLYLINE
  5
33C
330
1F
100
AcDbEntity
  8
\U+56FE\U+5C42 1
 62
     7
420
 16777215
370
    35
100
AcDb2dPolyline
 66
     1
 10
0.0
 20
0.0
 30
0.0
  0
VERTEX
  5
33D
330
33C
100
AcDbEntity
  8
\U+56FE\U+5C42 1
 62
     7
420
 16777215
370
    35
100
AcDbVertex
100
AcDb2dVertex
 10
310.6635524396953
 20
135.0722031997389
 30
0.0
  0
VERTEX
  5
33E
330
33C
100
AcDbEntity
  8
\U+56FE\U+5C42 1
 62
     7
420
 16777215
370
    35
100
AcDbVertex
100
AcDb2dVertex
 10
310.4609808251626
 20
135.1741780261023
 30
0.0
  0
SEQEND
  5
33F
330
33C
100
AcDbEntity
  8
\U+56FE\U+5C42 1
370
    35
  0
POLYLINE
  5
340
330
1F
100
AcDbEntity
  8
\U+56FE\U+5C42 1
 62
     7
420
 16777215
370
    35
100
AcDb2dPolyline
 66
     1
 10
0.0
 20
0.0
 30
0.0
  0
VERTEX
  5
341
330
340
100
AcDbEntity
  8
\U+56FE\U+5C42 1
 62
     7
420
 16777215
370
    35
100
AcDbVertex
100
AcDb2dVertex
 10
310.6635524396953
 20
128.9764512481378
 30
0.0
  0
VERTEX
  5
342
330
340
100
AcDbEntity
  8
\U+56FE\U+5C42 1
 62
     7
420
 16777215
370
    35
100
AcDbVertex
100
AcDb2dVertex
 10
310.4609808251626
 20
128.874820931323
 30
0.0
  0
SEQEND
  5
343
330
340
100
AcDbEntity
  8
\U+56FE\U+5C42 1
370
    35
  0
POLYLINE
  5
344
330
1F
100
AcDbEntity
  8
\U+56FE\U+5C42 1
 62
     7
420
 16777215
370
    35
100
AcDb2dPolyline
 66
     1
 10
0.0
 20
0.0
 30
0.0
  0
VERTEX
  5
345
330
344
100
AcDbEntity
  8
\U+56FE\U+5C42 1
 62
     7
420
 16777215
370
    35
100
AcDbVertex
100
AcDb2dVertex
 10
310.6635524396953
 20
129.6875189562934
 30
0.0
  0
VERTEX
  5
346
330
344
100
AcDbEntity
  8
\U+56FE\U+5C42 1
 62
     7
420
 16777215
370
    35
100
AcDbVertex
100
AcDb2dVertex
 10
310.4609808251626
 20
129.7894937826568
 30
0.0
  0
SEQEND
  5
347
330
344
100
AcDbEntity
  8
\U+56FE\U+5C42 1
370
    35
  0
POLYLINE
  5
348
330
1F
100
AcDbEntity
  8
\U+56FE\U+5C42 1
 62
     7
420
 16777215
370
    35
100
AcDb2dPolyline
 66
     1
 10
0.0
 20
0.0
 30
0.0
  0
VERTEX
  5
349
330
348
100
AcDbEntity
  8
\U+56FE\U+5C42 1
 62
     7
420
 16777215
370
    35
100
AcDbVertex
100
AcDb2dVertex
 10
310.6635524396953
 20
134.3611354915833
 30
0.0
  0
VERTEX
  5
34A
330
348
100
AcDbEntity
  8
\U+56FE\U+5C42 1
 62
     7
420
 16777215
370
    35
100
AcDbVertex
100
AcDb2dVertex
 10
310.4609808251626
 20
134.2595051747685
 30
0.0
  0
SEQEND
  5
34B
330
348
100
AcDbEntity
  8
\U+56FE\U+5C42 1
370
    35
  0
POLYLINE
  5
34C
330
1F
100
AcDbEntity
  8
\U+56FE\U+5C42 1
 62
     7
420
 16777215
370
    35
100
AcDb2dPolyline
 66
     1
 10
0.0
 20
0.0
 30
0.0
  0
VERTEX
  5
34D
330
34C
100
AcDbEntity
  8
\U+56FE\U+5C42 1
 62
     7
420
 16777215
370
    35
100
AcDbVertex
100
AcDb2dVertex
 10
307.5140461470799
 20
137.3077256601175
 30
0.0
  0
VERTEX
  5
34E
330
34C
100
AcDbEntity
  8
\U+56FE\U+5C42 1
 62
     7
420
 16777215
370
    35
100
AcDbVertex
100
AcDb2dVertex
 10
303.7554469726722
 20
137.4093559769324
 30
0.0
  0
SEQEND
  5
34F
330
34C
100
AcDbEntity
  8
\U+56FE\U+5C42 1
370
    35
  0
POLYLINE
  5
350
330
1F
100
AcDbEntity
  8
\U+56FE\U+5C42 1
 62
     7
420
 16777215
370
    35
100
AcDb2dPolyline
 66
     1
 10
0.0
 20
0.0
 30
0.0
  0
VERTEX
  5
351
330
350
100
AcDbEntity
  8
\U+56FE\U+5C42 1
 62
     7
420
 16777215
370
    35
100
AcDbVertex
100
AcDb2dVertex
 10
303.4502115126791
 20
137.4093559769324
 30
0.0
  0
VERTEX
  5
352
330
350
100
AcDbEntity
  8
\U+56FE\U+5C42 1
 62
     7
420
 16777215
370
    35
100
AcDbVertex
100
AcDb2dVertex
 10
213.6365722122159
 20
137.4093559769324
 30
0.0
  0
SEQEND
  5
353
330
350
100
AcDbEntity
  8
\U+56FE\U+5C42 1
370
    35
  0
POLYLINE
  5
354
330
1F
100
AcDbEntity
  8
\U+56FE\U+5C42 1
 62
     7
420
 16777215
370
    35
100
AcDb2dPolyline
 66
     1
 10
0.0
 20
0.0
 30
0.0
  0
VERTEX
  5
355
330
354
100
AcDbEntity
  8
\U+56FE\U+5C42 1
 62
     7
420
 16777215
370
    35
100
AcDbVertex
100
AcDb2dVertex
 10
83.79126788269802
 20
126.944189421389
 30
0.0
  0
VERTEX
  5
356
330
354
100
AcDbEntity
  8
\U+56FE\U+5C42 1
 62
     7
420
 16777215
370
    35
100
AcDbVertex
100
AcDb2dVertex
 10
83.89289819951289
 20
126.7412732973077
 30
0.0
  0
VERTEX
  5
357
330
354
100
AcDbEntity
  8
\U+56FE\U+5C42 1
 62
     7
420
 16777215
370
    35
100
AcDbVertex
100
AcDb2dVertex
 10
83.99452851632776
 20
126.6396429804929
 30
0.0
  0
SEQEND
  5
358
330
354
100
AcDbEntity
  8
\U+56FE\U+5C42 1
370
    35
  0
POLYLINE
  5
359
330
1F
100
AcDbEntity
  8
\U+56FE\U+5C42 1
 62
     7
420
 16777215
370
    35
100
AcDb2dPolyline
 66
     1
 10
0.0
 20
0.0
 30
0.0
  0
VERTEX
  5
35A
330
359
100
AcDbEntity
  8
\U+56FE\U+5C42 1
 62
     7
420
 16777215
370
    35
100
AcDbVertex
100
AcDb2dVertex
 10
83.68963756588315
 20
128.7731906145081
 30
0.0
  0
VERTEX
  5
35B
330
359
100
AcDbEntity
  8
\U+56FE\U+5C42 1
 62
     7
420
 16777215
370
    35
100
AcDbVertex
100
AcDb2dVertex
 10
83.79126788269802
 20
128.6715602976932
 30
0.0
  0
SEQEND
  5
35C
330
359
100
AcDbEntity
  8
\U+56FE\U+5C42 1
370
    35
  0
POLYLINE
  5
35D
330
1F
100
AcDbEntity
  8
\U+56FE\U+5C42 1
 62
     7
420
 16777215
370
    35
100
AcDb2dPolyline
 66
     1
 10
0.0
 20
0.0
 30
0.0
  0
VERTEX
  5
35E
330
35D
100
AcDbEntity
  8
\U+56FE\U+5C42 1
 62
     7
420
 16777215
370
    35
100
AcDbVertex
100
AcDb2dVertex
 10
83.79126788269802
 20
129.992409906738
 30
0.0
  0
VERTEX
  5
35F
330
35D
100
AcDbEntity
  8
\U+56FE\U+5C42 1
 62
     7
420
 16777215
370
    35
100
AcDbVertex
100
AcDb2dVertex
 10
83.68963756588315
 20
129.8907795899231
 30
0.0
  0
SEQEND
  5
360
330
35D
100
AcDbEntity
  8
\U+56FE\U+5C42 1
370
    35
  0
POLYLINE
  5
361
330
1F
100
AcDbEntity
  8
\U+56FE\U+5C42 1
 62
     7
420
 16777215
370
    35
100
AcDb2dPolyline
 66
     1
 10
0.0
 20
0.0
 30
0.0
  0
VERTEX
  5
362
330
361
100
AcDbEntity
  8
\U+56FE\U+5C42 1
 62
     7
420
 16777215
370
    35
100
AcDbVertex
100
AcDb2dVertex
 10
83.99452851632776
 20
137.3077256601175
 30
0.0
  0
VERTEX
  5
363
330
361
100
AcDbEntity
  8
\U+56FE\U+5C42 1
 62
     7
420
 16777215
370
    35
100
AcDbVertex
100
AcDb2dVertex
 10
83.89289819951289
 20
137.3077256601175
 30
0.0
  0
VERTEX
  5
364
330
361
100
AcDbEntity
  8
\U+56FE\U+5C42 1
 62
     7
420
 16777215
370
    35
100
AcDbVertex
100
AcDb2dVertex
 10
83.79126788269802
 20
137.1048095360363
 30
0.0
  0
SEQEND
  5
365
330
361
100
AcDbEntity
  8
\U+56FE\U+5C42 1
370
    35
  0
POLYLINE
  5
366
330
1F
100
AcDbEntity
  8
\U+56FE\U+5C42 1
 62
     7
420
 16777215
370
    35
100
AcDb2dPolyline
 66
     1
 10
0.0
 20
0.0
 30
0.0
  0
VERTEX
  5
367
330
366
100
AcDbEntity
  8
\U+56FE\U+5C42 1
 62
     7
420
 16777215
370
    35
100
AcDbVertex
100
AcDb2dVertex
 10
83.79126788269802
 20
135.377438659732
 30
0.0
  0
VERTEX
  5
368
330
366
100
AcDbEntity
  8
\U+56FE\U+5C42 1
 62
     7
420
 16777215
370
    35
100
AcDbVertex
100
AcDb2dVertex
 10
83.68963756588315
 20
135.2758083429172
 30
0.0
  0
SEQEND
  5
369
330
366
100
AcDbEntity
  8
\U+56FE\U+5C42 1
370
    35
  0
POLYLINE
  5
36A
330
1F
100
AcDbEntity
  8
\U+56FE\U+5C42 1
 62
     7
420
 16777215
370
    35
100
AcDb2dPolyline
 66
     1
 10
0.0
 20
0.0
 30
0.0
  0
VERTEX
  5
36B
330
36A
100
AcDbEntity
  8
\U+56FE\U+5C42 1
 62
     7
420
 16777215
370
    35
100
AcDbVertex
100
AcDb2dVertex
 10
83.68963756588315
 20
134.1582193675021
 30
0.0
  0
VERTEX
  5
36C
330
36A
100
AcDbEntity
  8
\U+56FE\U+5C42 1
 62
     7
420
 16777215
370
    35
100
AcDbVertex
100
AcDb2dVertex
 10
83.79126788269802
 20
134.0565890506873
 30
0.0
  0
SEQEND
  5
36D
330
36A
100
AcDbEntity
  8
\U+56FE\U+5C42 1
370
    35
  0
POLYLINE
  5
36E
330
1F
100
AcDbEntity
  8
\U+56FE\U+5C42 1
 62
     7
420
 16777215
370
    35
100
AcDb2dPolyline
 66
     1
 10
0.0
 20
0.0
 30
0.0
  0
VERTEX
  5
36F
330
36E
100
AcDbEntity
  8
\U+56FE\U+5C42 1
 62
     7
420
 16777215
370
    35
100
AcDbVertex
100
AcDb2dVertex
 10
87.85544702664725
 20
126.6396429804929
 30
0.0
  0
VERTEX
  5
370
330
36E
100
AcDbEntity
  8
\U+56FE\U+5C42 1
 62
     7
420
 16777215
370
    35
100
AcDbVertex
100
AcDb2dVertex
 10
87.85544702664725
 20
126.7412732973077
 30
0.0
  0
SEQEND
  5
371
330
36E
100
AcDbEntity
  8
\U+56FE\U+5C42 1
370
    35
  0
POLYLINE
  5
372
330
1F
100
AcDbEntity
  8
\U+56FE\U+5C42 1
 62
     7
420
 16777215
370
    35
100
AcDb2dPolyline
 66
     1
 10
0.0
 20
0.0
 30
0.0
  0
VERTEX
  5
373
330
372
100
AcDbEntity
  8
\U+56FE\U+5C42 1
 62
     7
420
 16777215
370
    35
100
AcDbVertex
100
AcDb2dVertex
 10
87.85544702664725
 20
137.3077256601175
 30
0.0
  0
VERTEX
  5
374
330
372
100
AcDbEntity
  8
\U+56FE\U+5C42 1
 62
     7
420
 16777215
370
    35
100
AcDbVertex
100
AcDb2dVertex
 10
87.85544702664725
 20
137.4093559769324
 30
0.0
  0
SEQEND
  5
375
330
372
100
AcDbEntity
  8
\U+56FE\U+5C42 1
370
    35
  0
POLYLINE
  5
376
330
1F
100
AcDbEntity
  8
\U+56FE\U+5C42 1
 62
     7
420
 16777215
370
    35
100
AcDb2dPolyline
 66
     1
 10
0.0
 20
0.0
 30
0.0
  0
VERTEX
  5
377
330
376
100
AcDbEntity
  8
\U+56FE\U+5C42 1
 62
     7
420
 16777215
370
    35
100
AcDbVertex
100
AcDb2dVertex
 10
303.6541611654059
 20
126.7412732973077
 30
0.0
  0
VERTEX
  5
378
330
376
100
AcDbEntity
  8
\U+56FE\U+5C42 1
 62
     7
420
 16777215
370
    35
100
AcDbVertex
100
AcDb2dVertex
 10
303.6541611654059
 20
126.6396429804929
 30
0.0
  0
VERTEX
  5
379
330
376
100
AcDbEntity
  8
\U+56FE\U+5C42 1
 62
     7
420
 16777215
370
    35
100
AcDbVertex
100
AcDb2dVertex
 10
303.7554469726722
 20
126.6396429804929
 30
0.0
  0
SEQEND
  5
37A
330
376
100
AcDbEntity
  8
\U+56FE\U+5C42 1
370
    35
  0
POLYLINE
  5
37B
330
1F
100
AcDbEntity
  8
\U+56FE\U+5C42 1
 62
     7
420
 16777215
370
    35
100
AcDb2dPolyline
 66
     1
 10
0.0
 20
0.0
 30
0.0
  0
VERTEX
  5
37C
330
37B
100
AcDbEntity
  8
\U+56FE\U+5C42 1
 62
     7
420
 16777215
370
    35
100
AcDbVertex
100
AcDb2dVertex
 10
303.7554469726722
 20
137.4093559769324
 30
0.0
  0
VERTEX
  5
37D
330
37B
100
AcDbEntity
  8
\U+56FE\U+5C42 1
 62
     7
420
 16777215
370
    35
100
AcDbVertex
100
AcDb2dVertex
 10
303.6541611654059
 20
137.4093559769324
 30
0.0
  0
VERTEX
  5
37E
330
37B
100
AcDbEntity
  8
\U+56FE\U+5C42 1
 62
     7
420
 16777215
370
    35
100
AcDbVertex
100
AcDb2dVertex
 10
303.6541611654059
 20
137.3077256601175
 30
0.0
  0
SEQEND
  5
37F
330
37B
100
AcDbEntity
  8
\U+56FE\U+5C42 1
370
    35
  0
POLYLINE
  5
380
330
1F
100
AcDbEntity
  8
\U+56FE\U+5C42 1
 62
     7
420
 16777215
370
    35
100
AcDb2dPolyline
 66
     1
 10
0.0
 20
0.0
 30
0.0
  0
VERTEX
  5
381
330
380
100
AcDbEntity
  8
\U+56FE\U+5C42 1
 62
     7
420
 16777215
370
    35
100
AcDbVertex
100
AcDb2dVertex
 10
307.5140461470799
 20
126.6396429804929
 30
0.0
  0
VERTEX
  5
382
330
380
100
AcDbEntity
  8
\U+56FE\U+5C42 1
 62
     7
420
 16777215
370
    35
100
AcDbVertex
100
AcDb2dVertex
 10
307.6160209734433
 20
126.7412732973077
 30
0.0
  0
VERTEX
  5
383
330
380
100
AcDbEntity
  8
\U+56FE\U+5C42 1
 62
     7
420
 16777215
370
    35
100
AcDbVertex
100
AcDb2dVertex
 10
307.7179957998066
 20
126.944189421389
 30
0.0
  0
SEQEND
  5
384
330
380
100
AcDbEntity
  8
\U+56FE\U+5C42 1
370
    35
  0
POLYLINE
  5
385
330
1F
100
AcDbEntity
  8
\U+56FE\U+5C42 1
 62
     7
420
 16777215
370
    35
100
AcDb2dPolyline
 66
     1
 10
0.0
 20
0.0
 30
0.0
  0
VERTEX
  5
386
330
385
100
AcDbEntity
  8
\U+56FE\U+5C42 1
 62
     7
420
 16777215
370
    35
100
AcDbVertex
100
AcDb2dVertex
 10
307.819281607073
 20
129.8907795899231
 30
0.0
  0
VERTEX
  5
387
330
385
100
AcDbEntity
  8
\U+56FE\U+5C42 1
 62
     7
420
 16777215
370
    35
100
AcDbVertex
100
AcDb2dVertex
 10
307.819281607073
 20
129.992409906738
 30
0.0
  0
VERTEX
  5
388
330
385
100
AcDbEntity
  8
\U+56FE\U+5C42 1
 62
     7
420
 16777215
370
    35
100
AcDbVertex
100
AcDb2dVertex
 10
307.7179957998066
 20
129.992409906738
 30
0.0
  0
SEQEND
  5
389
330
385
100
AcDbEntity
  8
\U+56FE\U+5C42 1
370
    35
  0
POLYLINE
  5
38A
330
1F
100
AcDbEntity
  8
\U+56FE\U+5C42 1
 62
     7
420
 16777215
370
    35
100
AcDb2dPolyline
 66
     1
 10
0.0
 20
0.0
 30
0.0
  0
VERTEX
  5
38B
330
38A
100
AcDbEntity
  8
\U+56FE\U+5C42 1
 62
     7
420
 16777215
370
    35
100
AcDbVertex
100
AcDb2dVertex
 10
307.7179957998066
 20
128.6715602976932
 30
0.0
  0
VERTEX
  5
38C
330
38A
100
AcDbEntity
  8
\U+56FE\U+5C42 1
 62
     7
420
 16777215
370
    35
100
AcDbVertex
100
AcDb2dVertex
 10
307.819281607073
 20
128.6715602976932
 30
0.0
  0
VERTEX
  5
38D
330
38A
100
AcDbEntity
  8
\U+56FE\U+5C42 1
 62
     7
420
 16777215
370
    35
100
AcDbVertex
100
AcDb2dVertex
 10
307.819281607073
 20
128.7731906145081
 30
0.0
  0
SEQEND
  5
38E
330
38A
100
AcDbEntity
  8
\U+56FE\U+5C42 1
370
    35
  0
POLYLINE
  5
38F
330
1F
100
AcDbEntity
  8
\U+56FE\U+5C42 1
 62
     7
420
 16777215
370
    35
100
AcDb2dPolyline
 66
     1
 10
0.0
 20
0.0
 30
0.0
  0
VERTEX
  5
390
330
38F
100
AcDbEntity
  8
\U+56FE\U+5C42 1
 62
     7
420
 16777215
370
    35
100
AcDbVertex
100
AcDb2dVertex
 10
307.7179957998066
 20
137.1048095360363
 30
0.0
  0
VERTEX
  5
391
330
38F
100
AcDbEntity
  8
\U+56FE\U+5C42 1
 62
     7
420
 16777215
370
    35
100
AcDbVertex
100
AcDb2dVertex
 10
307.6160209734433
 20
137.3077256601175
 30
0.0
  0
VERTEX
  5
392
330
38F
100
AcDbEntity
  8
\U+56FE\U+5C42 1
 62
     7
420
 16777215
370
    35
100
AcDbVertex
100
AcDb2dVertex
 10
307.5140461470799
 20
137.3077256601175
 30
0.0
  0
SEQEND
  5
393
330
38F
100
AcDbEntity
  8
\U+56FE\U+5C42 1
370
    35
  0
POLYLINE
  5
394
330
1F
100
AcDbEntity
  8
\U+56FE\U+5C42 1
 62
     7
420
 16777215
370
    35
100
AcDb2dPolyline
 66
     1
 10
0.0
 20
0.0
 30
0.0
  0
VERTEX
  5
395
330
394
100
AcDbEntity
  8
\U+56FE\U+5C42 1
 62
     7
420
 16777215
370
    35
100
AcDbVertex
100
AcDb2dVertex
 10
307.819281607073
 20
135.2758083429172
 30
0.0
  0
VERTEX
  5
396
330
394
100
AcDbEntity
  8
\U+56FE\U+5C42 1
 62
     7
420
 16777215
370
    35
100
AcDbVertex
100
AcDb2dVertex
 10
307.819281607073
 20
135.377438659732
 30
0.0
  0
VERTEX
  5
397
330
394
100
AcDbEntity
  8
\U+56FE\U+5C42 1
 62
     7
420
 16777215
370
    35
100
AcDbVertex
100
AcDb2dVertex
 10
307.7179957998066
 20
135.377438659732
 30
0.0
  0
SEQEND
  5
398
330
394
100
AcDbEntity
  8
\U+56FE\U+5C42 1
370
    35
  0
POLYLINE
  5
399
330
1F
100
AcDbEntity
  8
\U+56FE\U+5C42 1
 62
     7
420
 16777215
370
    35
100
AcDb2dPolyline
 66
     1
 10
0.0
 20
0.0
 30
0.0
  0
VERTEX
  5
39A
330
399
100
AcDbEntity
  8
\U+56FE\U+5C42 1
 62
     7
420
 16777215
370
    35
100
AcDbVertex
100
AcDb2dVertex
 10
307.7179957998066
 20
134.0565890506873
 30
0.0
  0
VERTEX
  5
39B
330
399
100
AcDbEntity
  8
\U+56FE\U+5C42 1
 62
     7
420
 16777215
370
    35
100
AcDbVertex
100
AcDb2dVertex
 10
307.819281607073
 20
134.0565890506873
 30
0.0
  0
VERTEX
  5
39C
330
399
100
AcDbEntity
  8
\U+56FE\U+5C42 1
 62
     7
420
 16777215
370
    35
100
AcDbVertex
100
AcDb2dVertex
 10
307.819281607073
 20
134.1582193675021
 30
0.0
  0
SEQEND
  5
39D
330
399
100
AcDbEntity
  8
\U+56FE\U+5C42 1
370
    35
  0
MTEXT
  5
39E
330
1F
100
AcDbEntity
  8
\U+56FE\U+5C42 1
 62
     7
420
 16777215
100
AcDbMText
 10
60.34325899099058
 20
143.8596082539657
 30
0.0
 40
3.454399907626052
 41
0.0
 71
     7
 72
     1
  1
\fSimSun|b0|i0|c0|p34;\W1;Φ25.4
 73
     1
 44
1.0
  0
MTEXT
  5
39F
330
1F
100
AcDbEntity
  8
\U+56FE\U+5C42 1
 62
     7
420
 16777215
100
AcDbMText
 10
314.107958905848
 20
16.03347438835274
 30
0.0
 40
3.358444443604833
 41
0.0
 71
     7
 72
     1
  1
\fAdobe Song Std L|b0|i0|c0|p34;\W1;MPL-T8-22/28(P）
 73
     1
 44
1.0
  0
MTEXT
  5
3A0
330
1F
100
AcDbEntity
  8
\U+56FE\U+5C42 1
 62
     7
420
 16777215
100
AcDbMText
 10
308.6884791980015
 20
28.40102267085113
 30
0.0
 40
3.358444443604833
 41
0.0
 71
     7
 72
     1
  1
\fAdobe Song Std L|b0|i0|c0|p34;\W1;直管LEDランプ　40形
 73
     1
 44
1.0
  0
MTEXT
  5
3A1
330
1F
100
AcDbEntity
  8
\U+56FE\U+5C42 1
 62
     7
420
 16777215
100
AcDbMText
 10
308.6884791980015
 20
22.47442490757584
 30
0.0
 40
3.358444443604833
 41
0.0
 71
     7
 72
     1
  1
\fAdobe Song Std L|b0|i0|c0|p34;\W1;【G13口金】
 73
     1
 44
1.0
  0
MTEXT
  5
3A2
330
1F
100
AcDbEntity
  8
\U+56FE\U+5C42 1
 62
     7
420
 16777215
100
AcDbMText
 10
283.6426350202352
 20
16.24293619385593
 30
0.0
 40
2.878666665947001
 41
0.0
 71
     7
 72
     1
  1
\fAdobe Song Std L|b0|i0|c0|p34;\W1;品番
 73
     1
 44
1.0
  0
MTEXT
  5
3A3
330
1F
100
AcDbEntity
  8
\U+56FE\U+5C42 1
 62
     7
420
 16777215
100
AcDbMText
 10
283.8779350418778
 20
26.65435925982947
 30
0.0
 40
2.878666665947001
 41
0.0
 71
     7
 72
     1
  1
\fAdobe Song Std L|b0|i0|c0|p34;\W1;品名
 73
     1
 44
1.0
  0
INSERT
  5
3A5
330
1F
100
AcDbEntity
  8
\U+56FE\U+5C42 1
100
AcDbBlockReference
  2
block 3
 10
0.0
 20
0.0
 30
0.0
  0
MTEXT
  5
3CD
330
1F
100
AcDbEntity
  8
\U+56FE\U+5C42 1
 62
     7
420
 16777215
100
AcDbMText
 10
268.4728460700346
 20
16.24293619385593
 30
0.0
 40
2.878666665947001
 41
0.0
 71
     7
 72
     1
  1
\fAdobe Song Std L|b0|i0|c0|p34;\W1;承認
 73
     1
 44
1.0
  0
MTEXT
  5
3CE
330
1F
100
AcDbEntity
  8
\U+56FE\U+5C42 1
 62
     7
420
 16777215
100
AcDbMText
 10
248.8192653457813
 20
16.32630750459898
 30
0.0
 40
2.878666665947001
 41
0.0
 71
     7
 72
     1
  1
\fAdobe Song Std L|b0|i0|c0|p34;\W1;検図
 73
     1
 44
1.0
  0
MTEXT
  5
3CF
330
1F
100
AcDbEntity
  8
\U+56FE\U+5C42 1
 62
     7
420
 16777215
100
AcDbMText
 10
228.0026203857077
 20
16.32630750459898
 30
0.0
 40
2.878666665947001
 41
0.0
 71
     7
 72
     1
  1
\fAdobe Song Std L|b0|i0|c0|p34;\W1;作成
 73
     1
 44
1.0
  0
MTEXT
  5
3D0
330
1F
100
AcDbEntity
  8
\U+56FE\U+5C42 1
 62
     7
420
 16777215
100
AcDbMText
 10
254.2259982003324
 20
21.61797416994273
 30
0.0
 40
2.878666665947001
 41
0.0
 71
     7
 72
     1
  1
\fAdobe Song Std L|b0|i0|c0|p34;\W1;2014-8-26
 73
     1
 44
1.0
  0
MTEXT
  5
3D1
330
1F
100
AcDbEntity
  8
\U+56FE\U+5C42 1
 62
     7
420
 16777215
100
AcDbMText
 10
252.9327093551696
 20
26.20374077035879
 30
0.0
 40
2.638777777118084
 41
0.0
 71
     7
 72
     1
  1
\fAdobe Song Std L|b0|i0|c0|p34;\W1;年　月　日
 73
     1
 44
1.0
  0
MTEXT
  5
3D2
330
1F
100
AcDbEntity
  8
\U+56FE\U+5C42 1
 62
     7
420
 16777215
100
AcDbMText
 10
245.230164869248
 20
31.37792967965552
 30
0.0
 40
2.638777777118084
 41
0.0
 71
     7
 72
     1
  1
\fAdobe Song Std L|b0|i0|c0|p34;\W1;第三角法（単位：㎜）
 73
     1
 44
1.0
  0
MTEXT
  5
3D3
330
1F
100
AcDbEntity
  8
\U+56FE\U+5C42 1
 62
     7
420
 16777215
100
AcDbMText
 10
228.7081759410869
 20
31.37792967965552
 30
0.0
 40
2.878666665947001
 41
0.0
 71
     7
 72
     1
  1
\fAdobe Song Std L|b0|i0|c0|p34;\W1;図法
 73
     1
 44
1.0
  0
MTEXT
  5
3D4
330
1F
100
AcDbEntity
  8
\U+56FE\U+5C42 1
 62
     7
420
 16777215
100
AcDbMText
 10
227.0621093182345
 20
26.20374077035879
 30
0.0
 40
2.878666665947001
 41
0.0
 71
     7
 72
     1
  1
\fAdobe Song Std L|b0|i0|c0|p34;\W1;変更日
 73
     1
 44
1.0
  0
MTEXT
  5
3D5
330
1F
100
AcDbEntity
  8
\U+56FE\U+5C42 1
 62
     7
420
 16777215
100
AcDbMText
 10
224.8813638760713
 20
21.61797416994273
 30
0.0
 40
2.398888888289167
 41
0.0
 71
     7
 72
     1
  1
\fAdobe Song Std L|b0|i0|c0|p34;\W1;初回作成日
 73
     1
 44
1.0
  0
MTEXT
  5
3D6
330
1F
100
AcDbEntity
  8
\U+56FE\U+5C42 1
 62
     7
420
 16777215
100
AcDbMText
 10
209.9995849084376
 20
6.801307506980229
 30
0.0
 40
1.919111110631334
 41
0.0
 71
     7
 72
     1
  1
\fAdobe Song Std L|b0|i0|c0|p34;\W1;備考
 73
     1
 44
1.0
  0
MTEXT
  5
3D7
330
1F
100
AcDbEntity
  8
\U+56FE\U+5C42 1
 62
     7
420
 16777215
100
AcDbMText
 10
179.3192870645452
 20
6.213229707648082
 30
0.0
 40
2.878666665947001
 41
0.0
 71
     7
 72
     1
  1
\fAdobe Song Std L|b0|i0|c0|p34;\W1;材質
 73
     1
 44
1.0
  0
MTEXT
  5
3D8
330
1F
100
AcDbEntity
  8
\U+56FE\U+5C42 1
 62
     7
420
 16777215
100
AcDbMText
 10
153.9194593256694
 20
6.213229707648082
 30
0.0
 40
2.878666665947001
 41
0.0
 71
     7
 72
     1
  1
\fAdobe Song Std L|b0|i0|c0|p34;\W1;数量
 73
     1
 44
1.0
  0
MTEXT
  5
3D9
330
1F
100
AcDbEntity
  8
\U+56FE\U+5C42 1
 62
     7
420
 16777215
100
AcDbMText
 10
131.3416815535361
 20
6.213229707648082
 30
0.0
 40
2.878666665947001
 41
0.0
 71
     7
 72
     1
  1
\fAdobe Song Std L|b0|i0|c0|p34;\W1;部品名
 73
     1
 44
1.0
  0
MTEXT
  5
3DA
330
1F
100
AcDbEntity
  8
\U+56FE\U+5C42 1
 62
     7
420
 16777215
100
AcDbMText
 10
114.4081759696619
 20
6.213229707648082
 30
0.0
 40
2.878666665947001
 41
0.0
 71
     7
 72
     1
  1
\fAdobe Song Std L|b0|i0|c0|p34;\W1;Ｎo
 73
     1
 44
1.0
  0
MTEXT
  5
3DB
330
1F
100
AcDbEntity
  8
\U+56FE\U+5C42 1
 62
     7
420
 16777215
100
AcDbMText
 10
116.8777926682632
 20
11.62237412903885
 30
0.0
 40
2.878666665947001
 41
0.0
 71
     7
 72
     1
  1
\fAdobe Song Std L|b0|i0|c0|p34;\W1;1
 73
     1
 44
1.0
  0
MTEXT
  5
3DC
330
1F
100
AcDbEntity
  8
\U+56FE\U+5C42 1
 62
     7
420
 16777215
100
AcDbMText
 10
116.8777926682632
 20
16.79621852878706
 30
0.0
 40
2.878666665947001
 41
0.0
 71
     7
 72
     1
  1
\fAdobe Song Std L|b0|i0|c0|p34;\W1;2
 73
     1
 44
1.0
  0
MTEXT
  5
3DD
330
1F
100
AcDbEntity
  8
\U+56FE\U+5C42 1
 62
     7
420
 16777215
100
AcDbMText
 10
116.8777926682632
 20
21.61797416994273
 30
0.0
 40
2.878666665947001
 41
0.0
 71
     7
 72
     1
  1
\fAdobe Song Std L|b0|i0|c0|p34;\W1;3
 73
     1
 44
1.0
  0
MTEXT
  5
3DE
330
1F
100
AcDbEntity
  8
\U+56FE\U+5C42 1
 62
     7
420
 16777215
100
AcDbMText
 10
116.8777926682632
 20
26.79181856969094
 30
0.0
 40
2.878666665947001
 41
0.0
 71
     7
 72
     1
  1
\fAdobe Song Std L|b0|i0|c0|p34;\W1;4
 73
     1
 44
1.0
  0
MTEXT
  5
3DF
330
1F
100
AcDbEntity
  8
\U+56FE\U+5C42 1
 62
     7
420
 16777215
100
AcDbMText
 10
116.8777926682632
 20
31.37792967965552
 30
0.0
 40
2.878666665947001
 41
0.0
 71
     7
 72
     1
  1
\fAdobe Song Std L|b0|i0|c0|p34;\W1;5
 73
     1
 44
1.0
  0
MTEXT
  5
3E0
330
1F
100
AcDbEntity
  8
\U+56FE\U+5C42 1
 62
     7
420
 16777215
100
AcDbMText
 10
131.8119370872727
 20
11.62237412903885
 30
0.0
 40
2.878666665947001
 41
0.0
 71
     7
 72
     1
  1
\fAdobe Song Std L|b0|i0|c0|p34;\W1;カバー
 73
     1
 44
1.0
  0
MTEXT
  5
3E1
330
1F
100
AcDbEntity
  8
\U+56FE\U+5C42 1
 62
     7
420
 16777215
100
AcDbMText
 10
130.4008259765144
 20
16.32630750459898
 30
0.0
 40
2.878666665947001
 41
0.0
 71
     7
 72
     1
  1
\fAdobe Song Std L|b0|i0|c0|p34;\W1;G13口金
 73
     1
 44
1.0
  0
MTEXT
  5
3E2
330
1F
100
AcDbEntity
  8
\U+56FE\U+5C42 1
 62
     7
420
 16777215
100
AcDbMText
 10
157.0944593248757
 20
16.32630750459898
 30
0.0
 40
2.878666665947001
 41
0.0
 71
     7
 72
     1
  1
\fAdobe Song Std L|b0|i0|c0|p34;\W1;2
 73
     1
 44
1.0
  0
MTEXT
  5
3E3
330
1F
100
AcDbEntity
  8
\U+56FE\U+5C42 1
 62
     7
420
 16777215
100
AcDbMText
 10
157.0944593248757
 20
11.62237412903885
 30
0.0
 40
2.878666665947001
 41
0.0
 71
     7
 72
     1
  1
\fAdobe Song Std L|b0|i0|c0|p34;\W1;1
 73
     1
 44
1.0
  0
MTEXT
  5
3E4
330
1F
100
AcDbEntity
  8
\U+56FE\U+5C42 1
 62
     7
420
 16777215
100
AcDbMText
 10
167.5601426447419
 20
11.15177408575372
 30
0.0
 40
2.878666665947001
 41
0.0
 71
     7
 72
     1
  1
\fAdobe Song Std L|b0|i0|c0|p34;\W1;ポリカーボネート
 73
     1
 44
1.0
  0
MTEXT
  5
3E5
330
1F
100
AcDbEntity
  8
\U+56FE\U+5C42 1
 62
     7
420
 16777215
100
AcDbMText
 10
174.1452704100227
 20
16.32630750459898
 30
0.0
 40
2.878666665947001
 41
0.0
 71
     7
 72
     1
  1
\fAdobe Song Std L|b0|i0|c0|p34;\W1;PC+銅ピン
 73
     1
 44
1.0
  0
MTEXT
  5
3E6
330
1F
100
AcDbEntity
  8
\U+56FE\U+5C42 1
 62
     7
420
 16777215
100
AcDbMText
 10
78.54249265614563
 20
74.0640407800951
 30
0.0
 40
2.878666665947001
 41
0.0
 71
     7
 72
     1
  1
\fAdobe Song Std L|b0|i0|c0|p34;\W1;【仕様】
 73
     1
 44
1.0
  0
MTEXT
  5
3E7
330
1F
100
AcDbEntity
  8
\U+56FE\U+5C42 1
 62
     7
420
 16777215
100
AcDbMText
 10
81.95279267699445
 20
52.89771862826863
 30
0.0
 40
2.638777777118084
 41
0.0
 71
     7
 72
     1
  1
\fAdobe Song Std L|b0|i0|c0|p34;\W1;直管LEDランプ
 73
     1
 44
1.0
  0
MTEXT
  5
3E8
330
1F
100
AcDbEntity
  8
\U+56FE\U+5C42 1
 62
     7
420
 16777215
100
AcDbMText
 10
81.95279267699445
 20
48.24098306085642
 30
0.0
 40
2.638777777118084
 41
0.0
 71
     7
 72
     1
  1
\fAdobe Song Std L|b0|i0|c0|p34;\W1;40形
 73
     1
 44
1.0
  0
MTEXT
  5
3E9
330
1F
100
AcDbEntity
  8
\U+56FE\U+5C42 1
 62
     7
420
 16777215
100
AcDbMText
 10
89.00817597601186
 20
65.00929631621295
 30
0.0
 40
2.878666665947001
 41
0.0
 71
     7
 72
     1
  1
\fAdobe Song Std L|b0|i0|c0|p34;\W1;種別
 73
     1
 44
1.0
  0
MTEXT
  5
3EA
330
1F
100
AcDbEntity
  8
\U+56FE\U+5C42 1
 62
     7
420
 16777215
100
AcDbMText
 10
125.1091593111706
 20
65.00929631621295
 30
0.0
 40
2.878666665947001
 41
0.0
 71
     7
 72
     1
  1
\fAdobe Song Std L|b0|i0|c0|p34;\W1;品番
 73
     1
 44
1.0
  0
MTEXT
  5
3EB
330
1F
100
AcDbEntity
  8
\U+56FE\U+5C42 1
 62
     7
420
 16777215
100
AcDbMText
 10
114.4081759696619
 20
50.54540743094004
 30
0.0
 40
2.878666665947001
 41
0.0
 71
     7
 72
     1
  1
\fAdobe Song Std L|b0|i0|c0|p34;\W1;MPL-T8-22/28(P）
 73
     1
 44
1.0
  0
MTEXT
  5
3EC
330
1F
100
AcDbEntity
  8
\U+56FE\U+5C42 1
 62
     7
420
 16777215
100
AcDbMText
 10
153.9194593256694
 20
64.65651853852337
 30
0.0
 40
2.878666665947001
 41
0.0
 71
     7
 72
     1
  1
\fAdobe Song Std L|b0|i0|c0|p34;\W1;光源色
 73
     1
 44
1.0
  0
MTEXT
  5
3ED
330
1F
100
AcDbEntity
  8
\U+56FE\U+5C42 1
 62
     7
420
 16777215
100
AcDbMText
 10
152.995829226074
 20
52.4271185849835
 30
0.0
 40
2.878666665947001
 41
0.0
 71
     7
 72
     1
  1
\fAdobe Song Std L|b0|i0|c0|p34;\W1;昼白色
 73
     1
 44
1.0
  0
MTEXT
  5
3EE
330
1F
100
AcDbEntity
  8
\U+56FE\U+5C42 1
 62
     7
420
 16777215
100
AcDbMText
 10
152.995829226074
 20
47.34698078243409
 30
0.0
 40
2.878666665947001
 41
0.0
 71
     7
 72
     1
  1
\fAdobe Song Std L|b0|i0|c0|p34;\W1;相当
 73
     1
 44
1.0
  0
MTEXT
  5
3EF
330
1F
100
AcDbEntity
  8
\U+56FE\U+5C42 1
 62
     7
420
 16777215
100
AcDbMText
 10
170.7349703891739
 20
67.36126300399302
 30
0.0
 40
2.398888888289167
 41
0.0
 71
     7
 72
     1
  1
\fAdobe Song Std L|b0|i0|c0|p34;\W1;質量
 73
     1
 44
1.0
  0
MTEXT
  5
3F0
330
1F
100
AcDbEntity
  8
\U+56FE\U+5C42 1
 62
     7
420
 16777215
100
AcDbMText
 10
170.7349703891739
 20
63.12792967171802
 30
0.0
 40
2.398888888289167
 41
0.0
 71
     7
 72
     1
  1
\fAdobe Song Std L|b0|i0|c0|p34;\W1;  (g）
 73
     1
 44
1.0
  0
MTEXT
  5
3F1
330
1F
100
AcDbEntity
  8
\U+56FE\U+5C42 1
 62
     7
420
 16777215
100
AcDbMText
 10
172.1462537547065
 20
50.54540743094004
 30
0.0
 40
2.878666665947001
 41
0.0
 71
     7
 72
     1
  1
\fAdobe Song Std L|b0|i0|c0|p34;\W1;300
 73
     1
 44
1.0
  0
MTEXT
  5
3F2
330
1F
100
AcDbEntity
  8
\U+56FE\U+5C42 1
 62
     7
420
 16777215
100
AcDbMText
 10
183.0821926083093
 20
67.36126300399302
 30
0.0
 40
2.398888888289167
 41
0.0
 71
     7
 72
     1
  1
\fAdobe Song Std L|b0|i0|c0|p34;\W1;定格電圧
 73
     1
 44
1.0
  0
MTEXT
  5
3F3
330
1F
100
AcDbEntity
  8
\U+56FE\U+5C42 1
 62
     7
420
 16777215
100
AcDbMText
 10
183.0821926083093
 20
63.12792967171802
 30
0.0
 40
2.398888888289167
 41
0.0
 71
     7
 72
     1
  1
\fAdobe Song Std L|b0|i0|c0|p34;\W1; （ｖ）
 73
     1
 44
1.0
  0
MTEXT
  5
3F4
330
1F
100
AcDbEntity
  8
\U+56FE\U+5C42 1
 62
     7
420
 16777215
100
AcDbMText
 10
184.2581759521994
 20
50.54540743094004
 30
0.0
 40
2.878666665947001
 41
0.0
 71
     7
 72
     1
  1
\fAdobe Song Std L|b0|i0|c0|p34;\W1;85-265
 73
     1
 44
1.0
  0
MTEXT
  5
3F5
330
1F
100
AcDbEntity
  8
\U+56FE\U+5C42 1
 62
     7
420
 16777215
100
AcDbMText
 10
211.8926648775824
 20
50.54540743094004
 30
0.0
 40
2.878666665947001
 41
0.0
 71
     7
 72
     1
  1
\fAdobe Song Std L|b0|i0|c0|p34;\W1;230
 73
     1
 44
1.0
  0
MTEXT
  5
3F6
330
1F
100
AcDbEntity
  8
\U+56FE\U+5C42 1
 62
     7
420
 16777215
100
AcDbMText
 10
202.2498426143681
 20
67.36126300399302
 30
0.0
 40
2.398888888289167
 41
0.0
 71
     7
 72
     1
  1
\fAdobe Song Std L|b0|i0|c0|p34;\W1;          定格
 73
     1
 44
1.0
  0
MTEXT
  5
3F7
330
1F
100
AcDbEntity
  8
\U+56FE\U+5C42 1
 62
     7
420
 16777215
100
AcDbMText
 10
202.2498426143681
 20
63.12792967171802
 30
0.0
 40
2.398888888289167
 41
0.0
 71
     7
 72
     1
  1
\fAdobe Song Std L|b0|i0|c0|p34;\W1;入力電流（mＡ）
 73
     1
 44
1.0
  0
MTEXT
  5
3F8
330
1F
100
AcDbEntity
  8
\U+56FE\U+5C42 1
 62
     7
420
 16777215
100
AcDbMText
 10
244.3482204250241
 20
50.54540743094004
 30
0.0
 40
2.878666665947001
 41
0.0
 71
     7
 72
     1
  1
\fAdobe Song Std L|b0|i0|c0|p34;\W1;22
 73
     1
 44
1.0
  0
MTEXT
  5
3F9
330
1F
100
AcDbEntity
  8
\U+56FE\U+5C42 1
 62
     7
420
 16777215
100
AcDbMText
 10
234.4704426497157
 20
67.36126300399302
 30
0.0
 40
2.398888888289167
 41
0.0
 71
     7
 72
     1
  1
\fAdobe Song Std L|b0|i0|c0|p34;\W1;         定格
 73
     1
 44
1.0
  0
MTEXT
  5
3FA
330
1F
100
AcDbEntity
  8
\U+56FE\U+5C42 1
 62
     7
420
 16777215
100
AcDbMText
 10
234.4704426497157
 20
63.12792967171802
 30
0.0
 40
2.398888888289167
 41
0.0
 71
     7
 72
     1
  1
\fAdobe Song Std L|b0|i0|c0|p34;\W1;消費電力（Ｗ）
 73
     1
 44
1.0
  0
MTEXT
  5
3FB
330
1F
100
AcDbEntity
  8
\U+56FE\U+5C42 1
 62
     7
420
 16777215
100
AcDbMText
 10
265.1621093087095
 20
67.36126300399302
 30
0.0
 40
2.398888888289167
 41
0.0
 71
     7
 72
     1
  1
\fAdobe Song Std L|b0|i0|c0|p34;\W1;周波数
 73
     1
 44
1.0
  0
MTEXT
  5
3FC
330
1F
100
AcDbEntity
  8
\U+56FE\U+5C42 1
 62
     7
420
 16777215
100
AcDbMText
 10
265.1621093087095
 20
63.12792967171802
 30
0.0
 40
2.398888888289167
 41
0.0
 71
     7
 72
     1
  1
\fAdobe Song Std L|b0|i0|c0|p34;\W1; (Ｈz)
 73
     1
 44
1.0
  0
MTEXT
  5
3FD
330
1F
100
AcDbEntity
  8
\U+56FE\U+5C42 1
 62
     7
420
 16777215
100
AcDbMText
 10
265.1621093087095
 20
51.95651854169837
 30
0.0
 40
2.878666665947001
 41
0.0
 71
     7
 72
     1
  1
\fAdobe Song Std L|b0|i0|c0|p34;\W1;50/60
 73
     1
 44
1.0
  0
MTEXT
  5
3FE
330
1F
100
AcDbEntity
  8
\U+56FE\U+5C42 1
 62
     7
420
 16777215
100
AcDbMText
 10
265.1621093087095
 20
46.87638073914896
 30
0.0
 40
2.878666665947001
 41
0.0
 71
     7
 72
     1
  1
\fAdobe Song Std L|b0|i0|c0|p34;\W1;共用
 73
     1
 44
1.0
  0
MTEXT
  5
3FF
330
1F
100
AcDbEntity
  8
\U+56FE\U+5C42 1
 62
     7
420
 16777215
100
AcDbMText
 10
286.445909216583
 20
50.54540743094004
 30
0.0
 40
2.878666665947001
 41
0.0
 71
     7
 72
     1
  1
\fAdobe Song Std L|b0|i0|c0|p34;\W1;2750
 73
     1
 44
1.0
  0
MTEXT
  5
400
330
1F
100
AcDbEntity
  8
\U+56FE\U+5C42 1
 62
     7
420
 16777215
100
AcDbMText
 10
284.5641980625395
 20
67.36126300399302
 30
0.0
 40
2.398888888289167
 41
0.0
 71
     7
 72
     1
  1
\fAdobe Song Std L|b0|i0|c0|p34;\W1;全光束
 73
     1
 44
1.0
  0
MTEXT
  5
401
330
1F
100
AcDbEntity
  8
\U+56FE\U+5C42 1
 62
     7
420
 16777215
100
AcDbMText
 10
284.5641980625395
 20
63.12792967171802
 30
0.0
 40
2.398888888289167
 41
0.0
 71
     7
 72
     1
  1
\fAdobe Song Std L|b0|i0|c0|p34;\W1;  (1m)
 73
     1
 44
1.0
  0
MTEXT
  5
402
330
1F
100
AcDbEntity
  8
\U+56FE\U+5C42 1
 62
     7
420
 16777215
100
AcDbMText
 10
305.9665092551056
 20
50.54540743094004
 30
0.0
 40
2.878666665947001
 41
0.0
 71
     7
 72
     1
  1
\fAdobe Song Std L|b0|i0|c0|p34;\W1;5000
 73
     1
 44
1.0
  0
MTEXT
  5
403
330
1F
100
AcDbEntity
  8
\U+56FE\U+5C42 1
 62
     7
420
 16777215
100
AcDbMText
 10
304.9081759220368
 20
67.36126300399302
 30
0.0
 40
2.398888888289167
 41
0.0
 71
     7
 72
     1
  1
\fAdobe Song Std L|b0|i0|c0|p34;\W1;色温度
 73
     1
 44
1.0
  0
MTEXT
  5
404
330
1F
100
AcDbEntity
  8
\U+56FE\U+5C42 1
 62
     7
420
 16777215
100
AcDbMText
 10
304.9081759220368
 20
63.12792967171802
 30
0.0
 40
2.398888888289167
 41
0.0
 71
     7
 72
     1
  1
\fAdobe Song Std L|b0|i0|c0|p34;\W1;（Ｋ）
 73
     1
 44
1.0
  0
MTEXT
  5
405
330
1F
100
AcDbEntity
  8
\U+56FE\U+5C42 1
 62
     7
420
 16777215
100
AcDbMText
 10
320.7831759180681
 20
64.65651853852337
 30
0.0
 40
2.878666665947001
 41
0.0
 71
     7
 72
     1
  1
\fAdobe Song Std L|b0|i0|c0|p34;\W1;口金
 73
     1
 44
1.0
  0
MTEXT
  5
406
330
1F
100
AcDbEntity
  8
\U+56FE\U+5C42 1
 62
     7
420
 16777215
100
AcDbMText
 10
333.1303981372035
 20
67.36126300399302
 30
0.0
 40
2.398888888289167
 41
0.0
 71
     7
 72
     1
  1
\fAdobe Song Std L|b0|i0|c0|p34;\W1;設計寿命
 73
     1
 44
1.0
  0
MTEXT
  5
407
330
1F
100
AcDbEntity
  8
\U+56FE\U+5C42 1
 62
     7
420
 16777215
100
AcDbMText
 10
333.1303981372035
 20
63.12792967171802
 30
0.0
 40
2.398888888289167
 41
0.0
 71
     7
 72
     1
  1
\fAdobe Song Std L|b0|i0|c0|p34;\W1; （ｈ）
 73
     1
 44
1.0
  0
MTEXT
  5
408
330
1F
100
AcDbEntity
  8
\U+56FE\U+5C42 1
 62
     7
420
 16777215
100
AcDbMText
 10
353.944287020889
 20
64.65651853852337
 30
0.0
 40
2.878666665947001
 41
0.0
 71
     7
 72
     1
  1
\fAdobe Song Std L|b0|i0|c0|p34;\W1;演色性
 73
     1
 44
1.0
  0
MTEXT
  5
409
330
1F
100
AcDbEntity
  8
\U+56FE\U+5C42 1
 62
     7
420
 16777215
100
AcDbMText
 10
321.8415092511369
 20
50.54540743094004
 30
0.0
 40
2.878666665947001
 41
0.0
 71
     7
 72
     1
  1
\fAdobe Song Std L|b0|i0|c0|p34;\W1;G13
 73
     1
 44
1.0
  0
MTEXT
  5
40A
330
1F
100
AcDbEntity
  8
\U+56FE\U+5C42 1
 62
     7
420
 16777215
100
AcDbMText
 10
334.956987763483
 20
50.54540743094004
 30
0.0
 40
2.878666665947001
 41
0.0
 71
     7
 72
     1
  1
\fAdobe Song Std L|b0|i0|c0|p34;\W1;40000
 73
     1
 44
1.0
  0
MTEXT
  5
40B
330
1F
100
AcDbEntity
  8
\U+56FE\U+5C42 1
 62
     7
420
 16777215
100
AcDbMText
 10
355.4732203972428
 20
50.54540743094004
 30
0.0
 40
2.878666665947001
 41
0.0
 71
     7
 72
     1
  1
\fAdobe Song Std L|b0|i0|c0|p34;\W1;Ｒa80
 73
     1
 44
1.0
  0
MTEXT
  5
40C
330
1F
100
AcDbEntity
  8
\U+56FE\U+5C42 1
 62
     7
420
 16777215
100
AcDbMText
 10
45.99994844770141
 20
238.4970702528757
 30
0.0
 40
5.037666665407251
 41
0.0
 71
     7
 72
     1
  1
\fAdobe Song Std L|b0|i0|c0|p34;\W1;MAKITECH POWER LED
 73
     1
 44
1.0
  0
MTEXT
  5
40D
330
1F
100
AcDbEntity
  8
\U+56FE\U+5C42 1
 62
     7
420
 16777215
100
AcDbMText
 10
296.2065537453928
 20
238.4970702528757
 30
0.0
 40
5.037666665407251
 41
0.0
 71
     7
 72
     1
  1
\fAdobe Song Std L|b0|i0|c0|p34;\W1;直管LEDランプ　40形
 73
     1
 44
1.0
  0
POLYLINE
  5
40E
330
1F
100
AcDbEntity
  8
\U+56FE\U+5C42 1
 62
     7
420
 16777215
370
    70
100
AcDb2dPolyline
 66
     1
 10
0.0
 20
0.0
 30
0.0
  0
VERTEX
  5
40F
330
40E
100
AcDbEntity
  8
\U+56FE\U+5C42 1
 62
     7
420
 16777215
370
    70
100
AcDbVertex
100
AcDb2dVertex
 10
373.6144042034714
 20
234.4795721527516
 30
0.0
  0
VERTEX
  5
410
330
40E
100
AcDbEntity
  8
\U+56FE\U+5C42 1
 62
     7
420
 16777215
370
    70
100
AcDbVertex
100
AcDb2dVertex
 10
373.6144042034714
 20
248.473205504288
 30
0.0
  0
SEQEND
  5
411
330
40E
100
AcDbEntity
  8
\U+56FE\U+5C42 1
370
    70
  0
POLYLINE
  5
412
330
1F
100
AcDbEntity
  8
\U+56FE\U+5C42 1
 62
     7
420
 16777215
370
    70
100
AcDb2dPolyline
 66
     1
 10
0.0
 20
0.0
 30
0.0
  0
VERTEX
  5
413
330
412
100
AcDbEntity
  8
\U+56FE\U+5C42 1
 62
     7
420
 16777215
370
    70
100
AcDbVertex
100
AcDb2dVertex
 10
373.6144042034714
 20
248.473205504288
 30
0.0
  0
VERTEX
  5
414
330
412
100
AcDbEntity
  8
\U+56FE\U+5C42 1
 62
     7
420
 16777215
370
    70
100
AcDbVertex
100
AcDb2dVertex
 10
293.6144639022908
 20
248.473205504288
 30
0.0
  0
SEQEND
  5
415
330
412
100
AcDbEntity
  8
\U+56FE\U+5C42 1
370
    70
  0
POLYLINE
  5
416
330
1F
100
AcDbEntity
  8
\U+56FE\U+5C42 1
 62
     7
420
 16777215
370
    70
100
AcDb2dPolyline
 66
     1
 10
0.0
 20
0.0
 30
0.0
  0
VERTEX
  5
417
330
416
100
AcDbEntity
  8
\U+56FE\U+5C42 1
 62
     7
420
 16777215
370
    70
100
AcDbVertex
100
AcDb2dVertex
 10
293.6144639022908
 20
234.9799722719842
 30
0.0
  0
VERTEX
  5
418
330
416
100
AcDbEntity
  8
\U+56FE\U+5C42 1
 62
     7
420
 16777215
370
    70
100
AcDbVertex
100
AcDb2dVertex
 10
293.6144639022908
 20
248.9736056235205
 30
0.0
  0
SEQEND
  5
419
330
416
100
AcDbEntity
  8
\U+56FE\U+5C42 1
370
    70
  0
INSERT
  5
41B
330
1F
100
AcDbEntity
  8
\U+56FE\U+5C42 1
100
AcDbBlockReference
  2
block 7
 10
0.0
 20
0.0
 30
0.0
  0
INSERT
  5
433
330
1F
100
AcDbEntity
  8
\U+56FE\U+5C42 1
100
AcDbBlockReference
  2
block 8
 10
0.0
 20
0.0
 30
0.0
  0
INSERT
  5
44B
330
1F
100
AcDbEntity
  8
\U+56FE\U+5C42 1
100
AcDbBlockReference
  2
block 9
 10
0.0
 20
0.0
 30
0.0
  0
SPLINE
  5
462
330
1F
100
AcDbEntity
  8
\U+56FE\U+5C42 1
 62
     7
420
 16777215
370
    18
100
AcDbSpline
210
0.0
220
0.0
230
1.0
 70
    27
 71
     3
 72
    11
 73
     7
 74
     0
 42
0.0000000001
 43
0.0000000001
 40
0.0
 40
0.0
 40
0.0
 40
0.0
 40
1.0
 40
1.0
 40
1.0
 40
2.0
 40
2.0
 40
2.0
 40
2.0
 10
338.8272080316127
 20
128.5530490130006
 30
0.0
 10
338.8272080316127
 20
128.5530490130006
 30
0.0
 10
338.1157958139086
 20
128.6546793298155
 30
0.0
 10
338.1157958139086
 20
128.6546793298155
 30
0.0
 10
338.1157958139086
 20
128.6546793298155
 30
0.0
 10
338.8272080316127
 20
128.5530490130006
 30
0.0
 10
338.8272080316127
 20
128.5530490130006
 30
0.0
  0
POLYLINE
  5
463
330
1F
100
AcDbEntity
  8
\U+56FE\U+5C42 1
 62
     7
420
 16777215
370
    18
100
AcDb2dPolyline
 66
     1
 10
0.0
 20
0.0
 30
0.0
  0
VERTEX
  5
464
330
463
100
AcDbEntity
  8
\U+56FE\U+5C42 1
 62
     7
420
 16777215
370
    18
100
AcDbVertex
100
AcDb2dVertex
 10
338.1157958139086
 20
129.467377354786
 30
0.0
  0
VERTEX
  5
465
330
463
100
AcDbEntity
  8
\U+56FE\U+5C42 1
 62
     7
420
 16777215
370
    18
100
AcDbVertex
100
AcDb2dVertex
 10
338.1157958139086
 20
129.3657470379711
 30
0.0
  0
SEQEND
  5
466
330
463
100
AcDbEntity
  8
\U+56FE\U+5C42 1
370
    18
  0
POLYLINE
  5
467
330
1F
100
AcDbEntity
  8
\U+56FE\U+5C42 1
 62
     7
420
 16777215
370
    18
100
AcDb2dPolyline
 66
     1
 10
0.0
 20
0.0
 30
0.0
  0
VERTEX
  5
468
330
467
100
AcDbEntity
  8
\U+56FE\U+5C42 1
 62
     7
420
 16777215
370
    18
100
AcDbVertex
100
AcDb2dVertex
 10
338.0145100066422
 20
129.3657470379711
 30
0.0
  0
VERTEX
  5
469
330
467
100
AcDbEntity
  8
\U+56FE\U+5C42 1
 62
     7
420
 16777215
370
    18
100
AcDbVertex
100
AcDb2dVertex
 10
338.0145100066422
 20
129.467377354786
 30
0.0
  0
SEQEND
  5
46A
330
467
100
AcDbEntity
  8
\U+56FE\U+5C42 1
370
    18
  0
POLYLINE
  5
46B
330
1F
100
AcDbEntity
  8
\U+56FE\U+5C42 1
 62
     7
420
 16777215
370
    18
100
AcDb2dPolyline
 66
     1
 10
0.0
 20
0.0
 30
0.0
  0
VERTEX
  5
46C
330
46B
100
AcDbEntity
  8
\U+56FE\U+5C42 1
 62
     7
420
 16777215
370
    18
100
AcDbVertex
100
AcDb2dVertex
 10
338.928493838879
 20
128.6546793298155
 30
0.0
  0
VERTEX
  5
46D
330
46B
100
AcDbEntity
  8
\U+56FE\U+5C42 1
 62
     7
420
 16777215
370
    18
100
AcDbVertex
100
AcDb2dVertex
 10
338.928493838879
 20
128.7563096466304
 30
0.0
  0
SEQEND
  5
46E
330
46B
100
AcDbEntity
  8
\U+56FE\U+5C42 1
370
    18
  0
POLYLINE
  5
46F
330
1F
100
AcDbEntity
  8
\U+56FE\U+5C42 1
 62
     7
420
 16777215
370
    18
100
AcDb2dPolyline
 66
     1
 10
0.0
 20
0.0
 30
0.0
  0
VERTEX
  5
470
330
46F
100
AcDbEntity
  8
\U+56FE\U+5C42 1
 62
     7
420
 16777215
370
    18
100
AcDbVertex
100
AcDb2dVertex
 10
338.8272080316127
 20
128.5530490130006
 30
0.0
  0
VERTEX
  5
471
330
46F
100
AcDbEntity
  8
\U+56FE\U+5C42 1
 62
     7
420
 16777215
370
    18
100
AcDbVertex
100
AcDb2dVertex
 10
338.8272080316127
 20
128.6546793298155
 30
0.0
  0
SEQEND
  5
472
330
46F
100
AcDbEntity
  8
\U+56FE\U+5C42 1
370
    18
  0
POLYLINE
  5
473
330
1F
100
AcDbEntity
  8
\U+56FE\U+5C42 1
 62
     7
420
 16777215
370
    18
100
AcDb2dPolyline
 66
     1
 10
0.0
 20
0.0
 30
0.0
  0
VERTEX
  5
474
330
473
100
AcDbEntity
  8
\U+56FE\U+5C42 1
 62
     7
420
 16777215
370
    18
100
AcDbVertex
100
AcDb2dVertex
 10
338.1157958139086
 20
129.467377354786
 30
0.0
  0
VERTEX
  5
475
330
473
100
AcDbEntity
  8
\U+56FE\U+5C42 1
 62
     7
420
 16777215
370
    18
100
AcDbVertex
100
AcDb2dVertex
 10
338.6242919075314
 20
129.1628309138898
 30
0.0
  0
SEQEND
  5
476
330
473
100
AcDbEntity
  8
\U+56FE\U+5C42 1
370
    18
  0
POLYLINE
  5
477
330
1F
100
AcDbEntity
  8
\U+56FE\U+5C42 1
 62
     7
420
 16777215
370
    18
100
AcDb2dPolyline
 66
     1
 10
0.0
 20
0.0
 30
0.0
  0
VERTEX
  5
478
330
477
100
AcDbEntity
  8
\U+56FE\U+5C42 1
 62
     7
420
 16777215
370
    18
100
AcDbVertex
100
AcDb2dVertex
 10
338.6242919075314
 20
129.0608560875264
 30
0.0
  0
VERTEX
  5
479
330
477
100
AcDbEntity
  8
\U+56FE\U+5C42 1
 62
     7
420
 16777215
370
    18
100
AcDbVertex
100
AcDb2dVertex
 10
338.1157958139086
 20
129.3657470379711
 30
0.0
  0
SEQEND
  5
47A
330
477
100
AcDbEntity
  8
\U+56FE\U+5C42 1
370
    18
  0
SPLINE
  5
47B
330
1F
100
AcDbEntity
  8
\U+56FE\U+5C42 1
 62
     7
420
 16777215
370
    18
100
AcDbSpline
210
0.0
220
0.0
230
1.0
 70
    27
 71
     3
 72
    11
 73
     7
 74
     0
 42
0.0000000001
 43
0.0000000001
 40
0.0
 40
0.0
 40
0.0
 40
0.0
 40
1.0
 40
1.0
 40
1.0
 40
2.0
 40
2.0
 40
2.0
 40
2.0
 10
338.0145100066422
 20
128.7563096466304
 30
0.0
 10
338.0145100066422
 20
128.7563096466304
 30
0.0
 10
338.0145100066422
 20
129.3657470379711
 30
0.0
 10
338.0145100066422
 20
129.3657470379711
 30
0.0
 10
338.0145100066422
 20
129.3657470379711
 30
0.0
 10
338.0145100066422
 20
128.7563096466304
 30
0.0
 10
338.0145100066422
 20
128.7563096466304
 30
0.0
  0
POLYLINE
  5
47C
330
1F
100
AcDbEntity
  8
\U+56FE\U+5C42 1
 62
     7
420
 16777215
370
    18
100
AcDb2dPolyline
 66
     1
 10
0.0
 20
0.0
 30
0.0
  0
VERTEX
  5
47D
330
47C
100
AcDbEntity
  8
\U+56FE\U+5C42 1
 62
     7
420
 16777215
370
    18
100
AcDbVertex
100
AcDb2dVertex
 10
339.5386202493168
 20
128.6546793298155
 30
0.0
  0
VERTEX
  5
47E
330
47C
100
AcDbEntity
  8
\U+56FE\U+5C42 1
 62
     7
420
 16777215
370
    18
100
AcDbVertex
100
AcDb2dVertex
 10
338.928493838879
 20
128.7563096466304
 30
0.0
  0
VERTEX
  5
47F
330
47C
100
AcDbEntity
  8
\U+56FE\U+5C42 1
 62
     7
420
 16777215
370
    18
100
AcDbVertex
100
AcDb2dVertex
 10
339.4369899325019
 20
128.6546793298155
 30
0.0
  0
VERTEX
  5
480
330
47C
100
AcDbEntity
  8
\U+56FE\U+5C42 1
 62
     7
420
 16777215
370
    18
100
AcDbVertex
100
AcDb2dVertex
 10
339.5386202493168
 20
128.6546793298155
 30
0.0
  0
SEQEND
  5
481
330
47C
100
AcDbEntity
  8
\U+56FE\U+5C42 1
370
    18
  0
SPLINE
  5
482
330
1F
100
AcDbEntity
  8
\U+56FE\U+5C42 1
 62
     7
420
 16777215
370
    18
100
AcDbSpline
210
0.0
220
0.0
230
1.0
 70
    27
 71
     3
 72
    11
 73
     7
 74
     0
 42
0.0000000001
 43
0.0000000001
 40
0.0
 40
0.0
 40
0.0
 40
0.0
 40
1.0
 40
1.0
 40
1.0
 40
2.0
 40
2.0
 40
2.0
 40
2.0
 10
339.5386202493168
 20
128.8579399634452
 30
0.0
 10
339.5386202493168
 20
128.8579399634452
 30
0.0
 10
338.7259222243463
 20
129.3657470379711
 30
0.0
 10
338.7259222243463
 20
129.3657470379711
 30
0.0
 10
338.7259222243463
 20
129.3657470379711
 30
0.0
 10
339.5386202493168
 20
128.8579399634452
 30
0.0
 10
339.5386202493168
 20
128.8579399634452
 30
0.0
  0
POLYLINE
  5
483
330
1F
100
AcDbEntity
  8
\U+56FE\U+5C42 1
 62
     7
420
 16777215
370
    18
100
AcDb2dPolyline
 66
     1
 10
0.0
 20
0.0
 30
0.0
  0
VERTEX
  5
484
330
483
100
AcDbEntity
  8
\U+56FE\U+5C42 1
 62
     7
420
 16777215
370
    18
100
AcDbVertex
100
AcDb2dVertex
 10
338.7259222243463
 20
129.3657470379711
 30
0.0
  0
VERTEX
  5
485
330
483
100
AcDbEntity
  8
\U+56FE\U+5C42 1
 62
     7
420
 16777215
370
    18
100
AcDbVertex
100
AcDb2dVertex
 10
338.7259222243463
 20
129.467377354786
 30
0.0
  0
SEQEND
  5
486
330
483
100
AcDbEntity
  8
\U+56FE\U+5C42 1
370
    18
  0
POLYLINE
  5
487
330
1F
100
AcDbEntity
  8
\U+56FE\U+5C42 1
 62
     7
420
 16777215
370
    18
100
AcDb2dPolyline
 66
     1
 10
0.0
 20
0.0
 30
0.0
  0
VERTEX
  5
488
330
487
100
AcDbEntity
  8
\U+56FE\U+5C42 1
 62
     7
420
 16777215
370
    18
100
AcDbVertex
100
AcDb2dVertex
 10
338.6242919075314
 20
129.2641167211562
 30
0.0
  0
VERTEX
  5
489
330
487
100
AcDbEntity
  8
\U+56FE\U+5C42 1
 62
     7
420
 16777215
370
    18
100
AcDbVertex
100
AcDb2dVertex
 10
338.6242919075314
 20
129.3657470379711
 30
0.0
  0
SEQEND
  5
48A
330
487
100
AcDbEntity
  8
\U+56FE\U+5C42 1
370
    18
  0
POLYLINE
  5
48B
330
1F
100
AcDbEntity
  8
\U+56FE\U+5C42 1
 62
     7
420
 16777215
370
    18
100
AcDb2dPolyline
 66
     1
 10
0.0
 20
0.0
 30
0.0
  0
VERTEX
  5
48C
330
48B
100
AcDbEntity
  8
\U+56FE\U+5C42 1
 62
     7
420
 16777215
370
    18
100
AcDbVertex
100
AcDb2dVertex
 10
338.6242919075314
 20
129.1628309138898
 30
0.0
  0
VERTEX
  5
48D
330
48B
100
AcDbEntity
  8
\U+56FE\U+5C42 1
 62
     7
420
 16777215
370
    18
100
AcDbVertex
100
AcDb2dVertex
 10
338.6242919075314
 20
129.0608560875264
 30
0.0
  0
SEQEND
  5
48E
330
48B
100
AcDbEntity
  8
\U+56FE\U+5C42 1
370
    18
  0
POLYLINE
  5
48F
330
1F
100
AcDbEntity
  8
\U+56FE\U+5C42 1
 62
     7
420
 16777215
370
    18
100
AcDb2dPolyline
 66
     1
 10
0.0
 20
0.0
 30
0.0
  0
VERTEX
  5
490
330
48F
100
AcDbEntity
  8
\U+56FE\U+5C42 1
 62
     7
420
 16777215
370
    18
100
AcDbVertex
100
AcDb2dVertex
 10
338.928493838879
 20
128.7563096466304
 30
0.0
  0
VERTEX
  5
491
330
48F
100
AcDbEntity
  8
\U+56FE\U+5C42 1
 62
     7
420
 16777215
370
    18
100
AcDbVertex
100
AcDb2dVertex
 10
338.928493838879
 20
128.8579399634452
 30
0.0
  0
SEQEND
  5
492
330
48F
100
AcDbEntity
  8
\U+56FE\U+5C42 1
370
    18
  0
POLYLINE
  5
493
330
1F
100
AcDbEntity
  8
\U+56FE\U+5C42 1
 62
     7
420
 16777215
370
    18
100
AcDb2dPolyline
 66
     1
 10
0.0
 20
0.0
 30
0.0
  0
VERTEX
  5
494
330
493
100
AcDbEntity
  8
\U+56FE\U+5C42 1
 62
     7
420
 16777215
370
    18
100
AcDbVertex
100
AcDb2dVertex
 10
338.6242919075314
 20
129.1628309138898
 30
0.0
  0
VERTEX
  5
495
330
493
100
AcDbEntity
  8
\U+56FE\U+5C42 1
 62
     7
420
 16777215
370
    18
100
AcDbVertex
100
AcDb2dVertex
 10
338.6242919075314
 20
129.2641167211562
 30
0.0
  0
VERTEX
  5
496
330
493
100
AcDbEntity
  8
\U+56FE\U+5C42 1
 62
     7
420
 16777215
370
    18
100
AcDbVertex
100
AcDb2dVertex
 10
338.6242919075314
 20
129.0608560875264
 30
0.0
  0
SEQEND
  5
497
330
493
100
AcDbEntity
  8
\U+56FE\U+5C42 1
370
    18
  0
SPLINE
  5
498
330
1F
100
AcDbEntity
  8
\U+56FE\U+5C42 1
 62
     7
420
 16777215
370
    18
100
AcDbSpline
210
0.0
220
0.0
230
1.0
 70
    27
 71
     3
 72
    11
 73
     7
 74
     0
 42
0.0000000001
 43
0.0000000001
 40
0.0
 40
0.0
 40
0.0
 40
0.0
 40
1.0
 40
1.0
 40
1.0
 40
2.0
 40
2.0
 40
2.0
 40
2.0
 10
338.928493838879
 20
128.6546793298155
 30
0.0
 10
338.928493838879
 20
128.6546793298155
 30
0.0
 10
338.928493838879
 20
128.7563096466304
 30
0.0
 10
338.928493838879
 20
128.7563096466304
 30
0.0
 10
338.928493838879
 20
128.7563096466304
 30
0.0
 10
338.928493838879
 20
128.6546793298155
 30
0.0
 10
338.928493838879
 20
128.6546793298155
 30
0.0
  0
POLYLINE
  5
499
330
1F
100
AcDbEntity
  8
\U+56FE\U+5C42 1
 62
     7
420
 16777215
370
    18
100
AcDb2dPolyline
 66
     1
 10
0.0
 20
0.0
 30
0.0
  0
VERTEX
  5
49A
330
499
100
AcDbEntity
  8
\U+56FE\U+5C42 1
 62
     7
420
 16777215
370
    18
100
AcDbVertex
100
AcDb2dVertex
 10
342.5864962251173
 20
127.4354600375856
 30
0.0
  0
VERTEX
  5
49B
330
499
100
AcDbEntity
  8
\U+56FE\U+5C42 1
 62
     7
420
 16777215
370
    18
100
AcDbVertex
100
AcDb2dVertex
 10
342.4848659083024
 20
127.3338297207707
 30
0.0
  0
SEQEND
  5
49C
330
499
100
AcDbEntity
  8
\U+56FE\U+5C42 1
370
    18
  0
POLYLINE
  5
49D
330
1F
100
AcDbEntity
  8
\U+56FE\U+5C42 1
 62
     7
420
 16777215
370
    18
100
AcDb2dPolyline
 66
     1
 10
0.0
 20
0.0
 30
0.0
  0
VERTEX
  5
49E
330
49D
100
AcDbEntity
  8
\U+56FE\U+5C42 1
 62
     7
420
 16777215
370
    18
100
AcDbVertex
100
AcDb2dVertex
 10
341.3672769328874
 20
128.6546793298155
 30
0.0
  0
VERTEX
  5
49F
330
49D
100
AcDbEntity
  8
\U+56FE\U+5C42 1
 62
     7
420
 16777215
370
    18
100
AcDbVertex
100
AcDb2dVertex
 10
341.1643608088061
 20
129.1628309138898
 30
0.0
  0
VERTEX
  5
4A0
330
49D
100
AcDbEntity
  8
\U+56FE\U+5C42 1
 62
     7
420
 16777215
370
    18
100
AcDbVertex
100
AcDb2dVertex
 10
340.6558647151833
 20
129.3657470379711
 30
0.0
  0
VERTEX
  5
4A1
330
49D
100
AcDbEntity
  8
\U+56FE\U+5C42 1
 62
     7
420
 16777215
370
    18
100
AcDbVertex
100
AcDb2dVertex
 10
340.1480576406574
 20
129.1628309138898
 30
0.0
  0
VERTEX
  5
4A2
330
49D
100
AcDbEntity
  8
\U+56FE\U+5C42 1
 62
     7
420
 16777215
370
    18
100
AcDbVertex
100
AcDb2dVertex
 10
339.9447970070277
 20
128.6546793298155
 30
0.0
  0
VERTEX
  5
4A3
330
49D
100
AcDbEntity
  8
\U+56FE\U+5C42 1
 62
     7
420
 16777215
370
    18
100
AcDbVertex
100
AcDb2dVertex
 10
340.1480576406574
 20
128.248158062556
 30
0.0
  0
VERTEX
  5
4A4
330
49D
100
AcDbEntity
  8
\U+56FE\U+5C42 1
 62
     7
420
 16777215
370
    18
100
AcDbVertex
100
AcDb2dVertex
 10
340.6558647151833
 20
128.0452419384748
 30
0.0
  0
VERTEX
  5
4A5
330
49D
100
AcDbEntity
  8
\U+56FE\U+5C42 1
 62
     7
420
 16777215
370
    18
100
AcDbVertex
100
AcDb2dVertex
 10
341.1643608088061
 20
128.248158062556
 30
0.0
  0
VERTEX
  5
4A6
330
49D
100
AcDbEntity
  8
\U+56FE\U+5C42 1
 62
     7
420
 16777215
370
    18
100
AcDbVertex
100
AcDb2dVertex
 10
341.3672769328874
 20
128.6546793298155
 30
0.0
  0
VERTEX
  5
4A7
330
49D
100
AcDbEntity
  8
\U+56FE\U+5C42 1
 62
     7
420
 16777215
370
    18
100
AcDbVertex
100
AcDb2dVertex
 10
341.1643608088061
 20
129.1628309138898
 30
0.0
  0
VERTEX
  5
4A8
330
49D
100
AcDbEntity
  8
\U+56FE\U+5C42 1
 62
     7
420
 16777215
370
    18
100
AcDbVertex
100
AcDb2dVertex
 10
340.6558647151833
 20
129.3657470379711
 30
0.0
  0
VERTEX
  5
4A9
330
49D
100
AcDbEntity
  8
\U+56FE\U+5C42 1
 62
     7
420
 16777215
370
    18
100
AcDbVertex
100
AcDb2dVertex
 10
340.2496879574723
 20
129.1628309138898
 30
0.0
  0
VERTEX
  5
4AA
330
49D
100
AcDbEntity
  8
\U+56FE\U+5C42 1
 62
     7
420
 16777215
370
    18
100
AcDbVertex
100
AcDb2dVertex
 10
340.0464273238426
 20
128.6546793298155
 30
0.0
  0
VERTEX
  5
4AB
330
49D
100
AcDbEntity
  8
\U+56FE\U+5C42 1
 62
     7
420
 16777215
370
    18
100
AcDbVertex
100
AcDb2dVertex
 10
340.2496879574723
 20
128.248158062556
 30
0.0
  0
VERTEX
  5
4AC
330
49D
100
AcDbEntity
  8
\U+56FE\U+5C42 1
 62
     7
420
 16777215
370
    18
100
AcDbVertex
100
AcDb2dVertex
 10
340.6558647151833
 20
128.0452419384748
 30
0.0
  0
VERTEX
  5
4AD
330
49D
100
AcDbEntity
  8
\U+56FE\U+5C42 1
 62
     7
420
 16777215
370
    18
100
AcDbVertex
100
AcDb2dVertex
 10
341.1643608088061
 20
128.248158062556
 30
0.0
  0
VERTEX
  5
4AE
330
49D
100
AcDbEntity
  8
\U+56FE\U+5C42 1
 62
     7
420
 16777215
370
    18
100
AcDbVertex
100
AcDb2dVertex
 10
341.3672769328874
 20
128.6546793298155
 30
0.0
  0
SEQEND
  5
4AF
330
49D
100
AcDbEntity
  8
\U+56FE\U+5C42 1
370
    18
  0
POLYLINE
  5
4B0
330
1F
100
AcDbEntity
  8
\U+56FE\U+5C42 1
 62
     7
420
 16777215
370
    18
100
AcDb2dPolyline
 66
     1
 10
0.0
 20
0.0
 30
0.0
  0
VERTEX
  5
4B1
330
4B0
100
AcDbEntity
  8
\U+56FE\U+5C42 1
 62
     7
420
 16777215
370
    18
100
AcDbVertex
100
AcDb2dVertex
 10
341.265991125621
 20
128.6546793298155
 30
0.0
  0
VERTEX
  5
4B2
330
4B0
100
AcDbEntity
  8
\U+56FE\U+5C42 1
 62
     7
420
 16777215
370
    18
100
AcDbVertex
100
AcDb2dVertex
 10
341.0627304919913
 20
129.0608560875264
 30
0.0
  0
VERTEX
  5
4B3
330
4B0
100
AcDbEntity
  8
\U+56FE\U+5C42 1
 62
     7
420
 16777215
370
    18
100
AcDbVertex
100
AcDb2dVertex
 10
340.6558647151833
 20
129.2641167211562
 30
0.0
  0
VERTEX
  5
4B4
330
4B0
100
AcDbEntity
  8
\U+56FE\U+5C42 1
 62
     7
420
 16777215
370
    18
100
AcDbVertex
100
AcDb2dVertex
 10
340.2496879574723
 20
129.0608560875264
 30
0.0
  0
VERTEX
  5
4B5
330
4B0
100
AcDbEntity
  8
\U+56FE\U+5C42 1
 62
     7
420
 16777215
370
    18
100
AcDbVertex
100
AcDb2dVertex
 10
340.0464273238426
 20
128.6546793298155
 30
0.0
  0
VERTEX
  5
4B6
330
4B0
100
AcDbEntity
  8
\U+56FE\U+5C42 1
 62
     7
420
 16777215
370
    18
100
AcDbVertex
100
AcDb2dVertex
 10
340.2496879574723
 20
128.248158062556
 30
0.0
  0
VERTEX
  5
4B7
330
4B0
100
AcDbEntity
  8
\U+56FE\U+5C42 1
 62
     7
420
 16777215
370
    18
100
AcDbVertex
100
AcDb2dVertex
 10
340.6558647151833
 20
128.1468722552897
 30
0.0
  0
VERTEX
  5
4B8
330
4B0
100
AcDbEntity
  8
\U+56FE\U+5C42 1
 62
     7
420
 16777215
370
    18
100
AcDbVertex
100
AcDb2dVertex
 10
341.0627304919913
 20
128.248158062556
 30
0.0
  0
VERTEX
  5
4B9
330
4B0
100
AcDbEntity
  8
\U+56FE\U+5C42 1
 62
     7
420
 16777215
370
    18
100
AcDbVertex
100
AcDb2dVertex
 10
341.265991125621
 20
128.6546793298155
 30
0.0
  0
SEQEND
  5
4BA
330
4B0
100
AcDbEntity
  8
\U+56FE\U+5C42 1
370
    18
  0
POLYLINE
  5
4BB
330
1F
100
AcDbEntity
  8
\U+56FE\U+5C42 1
 62
     7
420
 16777215
370
    18
100
AcDb2dPolyline
 66
     1
 10
0.0
 20
0.0
 30
0.0
  0
VERTEX
  5
4BC
330
4BB
100
AcDbEntity
  8
\U+56FE\U+5C42 1
 62
     7
420
 16777215
370
    18
100
AcDbVertex
100
AcDb2dVertex
 10
341.1643608088061
 20
128.6546793298155
 30
0.0
  0
VERTEX
  5
4BD
330
4BB
100
AcDbEntity
  8
\U+56FE\U+5C42 1
 62
     7
420
 16777215
370
    18
100
AcDbVertex
100
AcDb2dVertex
 10
341.0627304919913
 20
129.0608560875264
 30
0.0
  0
VERTEX
  5
4BE
330
4BB
100
AcDbEntity
  8
\U+56FE\U+5C42 1
 62
     7
420
 16777215
370
    18
100
AcDbVertex
100
AcDb2dVertex
 10
340.6558647151833
 20
129.1628309138898
 30
0.0
  0
VERTEX
  5
4BF
330
4BB
100
AcDbEntity
  8
\U+56FE\U+5C42 1
 62
     7
420
 16777215
370
    18
100
AcDbVertex
100
AcDb2dVertex
 10
340.3516627838357
 20
129.0608560875264
 30
0.0
  0
VERTEX
  5
4C0
330
4BB
100
AcDbEntity
  8
\U+56FE\U+5C42 1
 62
     7
420
 16777215
370
    18
100
AcDbVertex
100
AcDb2dVertex
 10
340.1480576406574
 20
128.6546793298155
 30
0.0
  0
VERTEX
  5
4C1
330
4BB
100
AcDbEntity
  8
\U+56FE\U+5C42 1
 62
     7
420
 16777215
370
    18
100
AcDbVertex
100
AcDb2dVertex
 10
340.3516627838357
 20
128.3497883793709
 30
0.0
  0
VERTEX
  5
4C2
330
4BB
100
AcDbEntity
  8
\U+56FE\U+5C42 1
 62
     7
420
 16777215
370
    18
100
AcDbVertex
100
AcDb2dVertex
 10
340.6558647151833
 20
128.248158062556
 30
0.0
  0
VERTEX
  5
4C3
330
4BB
100
AcDbEntity
  8
\U+56FE\U+5C42 1
 62
     7
420
 16777215
370
    18
100
AcDbVertex
100
AcDb2dVertex
 10
341.0627304919913
 20
128.3497883793709
 30
0.0
  0
VERTEX
  5
4C4
330
4BB
100
AcDbEntity
  8
\U+56FE\U+5C42 1
 62
     7
420
 16777215
370
    18
100
AcDbVertex
100
AcDb2dVertex
 10
341.1643608088061
 20
128.6546793298155
 30
0.0
  0
SEQEND
  5
4C5
330
4BB
100
AcDbEntity
  8
\U+56FE\U+5C42 1
370
    18
  0
POLYLINE
  5
4C6
330
1F
100
AcDbEntity
  8
\U+56FE\U+5C42 1
 62
     7
420
 16777215
370
    18
100
AcDb2dPolyline
 66
     1
 10
0.0
 20
0.0
 30
0.0
  0
VERTEX
  5
4C7
330
4C6
100
AcDbEntity
  8
\U+56FE\U+5C42 1
 62
     7
420
 16777215
370
    18
100
AcDbVertex
100
AcDb2dVertex
 10
341.0627304919913
 20
128.6546793298155
 30
0.0
  0
VERTEX
  5
4C8
330
4C6
100
AcDbEntity
  8
\U+56FE\U+5C42 1
 62
     7
420
 16777215
370
    18
100
AcDbVertex
100
AcDb2dVertex
 10
340.9607556656279
 20
128.9595702802601
 30
0.0
  0
VERTEX
  5
4C9
330
4C6
100
AcDbEntity
  8
\U+56FE\U+5C42 1
 62
     7
420
 16777215
370
    18
100
AcDbVertex
100
AcDb2dVertex
 10
340.6558647151833
 20
129.0608560875264
 30
0.0
  0
VERTEX
  5
4CA
330
4C6
100
AcDbEntity
  8
\U+56FE\U+5C42 1
 62
     7
420
 16777215
370
    18
100
AcDbVertex
100
AcDb2dVertex
 10
340.452948591102
 20
128.9595702802601
 30
0.0
  0
VERTEX
  5
4CB
330
4C6
100
AcDbEntity
  8
\U+56FE\U+5C42 1
 62
     7
420
 16777215
370
    18
100
AcDbVertex
100
AcDb2dVertex
 10
340.3516627838357
 20
128.6546793298155
 30
0.0
  0
VERTEX
  5
4CC
330
4C6
100
AcDbEntity
  8
\U+56FE\U+5C42 1
 62
     7
420
 16777215
370
    18
100
AcDbVertex
100
AcDb2dVertex
 10
340.452948591102
 20
128.4510741866372
 30
0.0
  0
VERTEX
  5
4CD
330
4C6
100
AcDbEntity
  8
\U+56FE\U+5C42 1
 62
     7
420
 16777215
370
    18
100
AcDbVertex
100
AcDb2dVertex
 10
340.6558647151833
 20
128.3497883793709
 30
0.0
  0
VERTEX
  5
4CE
330
4C6
100
AcDbEntity
  8
\U+56FE\U+5C42 1
 62
     7
420
 16777215
370
    18
100
AcDbVertex
100
AcDb2dVertex
 10
340.9607556656279
 20
128.4510741866372
 30
0.0
  0
VERTEX
  5
4CF
330
4C6
100
AcDbEntity
  8
\U+56FE\U+5C42 1
 62
     7
420
 16777215
370
    18
100
AcDbVertex
100
AcDb2dVertex
 10
341.0627304919913
 20
128.6546793298155
 30
0.0
  0
SEQEND
  5
4D0
330
4C6
100
AcDbEntity
  8
\U+56FE\U+5C42 1
370
    18
  0
POLYLINE
  5
4D1
330
1F
100
AcDbEntity
  8
\U+56FE\U+5C42 1
 62
     7
420
 16777215
370
    18
100
AcDb2dPolyline
 66
     1
 10
0.0
 20
0.0
 30
0.0
  0
VERTEX
  5
4D2
330
4D1
100
AcDbEntity
  8
\U+56FE\U+5C42 1
 62
     7
420
 16777215
370
    18
100
AcDbVertex
100
AcDb2dVertex
 10
340.9607556656279
 20
128.6546793298155
 30
0.0
  0
VERTEX
  5
4D3
330
4D1
100
AcDbEntity
  8
\U+56FE\U+5C42 1
 62
     7
420
 16777215
370
    18
100
AcDbVertex
100
AcDb2dVertex
 10
340.859125348813
 20
128.8579399634452
 30
0.0
  0
VERTEX
  5
4D4
330
4D1
100
AcDbEntity
  8
\U+56FE\U+5C42 1
 62
     7
420
 16777215
370
    18
100
AcDbVertex
100
AcDb2dVertex
 10
340.6558647151833
 20
128.9595702802601
 30
0.0
  0
VERTEX
  5
4D5
330
4D1
100
AcDbEntity
  8
\U+56FE\U+5C42 1
 62
     7
420
 16777215
370
    18
100
AcDbVertex
100
AcDb2dVertex
 10
340.452948591102
 20
128.8579399634452
 30
0.0
  0
VERTEX
  5
4D6
330
4D1
100
AcDbEntity
  8
\U+56FE\U+5C42 1
 62
     7
420
 16777215
370
    18
100
AcDbVertex
100
AcDb2dVertex
 10
340.452948591102
 20
128.6546793298155
 30
0.0
  0
VERTEX
  5
4D7
330
4D1
100
AcDbEntity
  8
\U+56FE\U+5C42 1
 62
     7
420
 16777215
370
    18
100
AcDbVertex
100
AcDb2dVertex
 10
340.452948591102
 20
128.5530490130006
 30
0.0
  0
VERTEX
  5
4D8
330
4D1
100
AcDbEntity
  8
\U+56FE\U+5C42 1
 62
     7
420
 16777215
370
    18
100
AcDbVertex
100
AcDb2dVertex
 10
340.6558647151833
 20
128.4510741866372
 30
0.0
  0
VERTEX
  5
4D9
330
4D1
100
AcDbEntity
  8
\U+56FE\U+5C42 1
 62
     7
420
 16777215
370
    18
100
AcDbVertex
100
AcDb2dVertex
 10
340.859125348813
 20
128.5530490130006
 30
0.0
  0
VERTEX
  5
4DA
330
4D1
100
AcDbEntity
  8
\U+56FE\U+5C42 1
 62
     7
420
 16777215
370
    18
100
AcDbVertex
100
AcDb2dVertex
 10
340.9607556656279
 20
128.6546793298155
 30
0.0
  0
SEQEND
  5
4DB
330
4D1
100
AcDbEntity
  8
\U+56FE\U+5C42 1
370
    18
  0
POLYLINE
  5
4DC
330
1F
100
AcDbEntity
  8
\U+56FE\U+5C42 1
 62
     7
420
 16777215
370
    18
100
AcDb2dPolyline
 66
     1
 10
0.0
 20
0.0
 30
0.0
  0
VERTEX
  5
4DD
330
4DC
100
AcDbEntity
  8
\U+56FE\U+5C42 1
 62
     7
420
 16777215
370
    18
100
AcDbVertex
100
AcDb2dVertex
 10
346.0408934681773
 20
131.3980088647199
 30
0.0
  0
VERTEX
  5
4DE
330
4DC
100
AcDbEntity
  8
\U+56FE\U+5C42 1
 62
     7
420
 16777215
370
    18
100
AcDbVertex
100
AcDb2dVertex
 10
345.8376328345475
 20
132.8201442810311
 30
0.0
  0
VERTEX
  5
4DF
330
4DC
100
AcDbEntity
  8
\U+56FE\U+5C42 1
 62
     7
420
 16777215
370
    18
100
AcDbVertex
100
AcDb2dVertex
 10
345.3298257600217
 20
134.1409938900759
 30
0.0
  0
VERTEX
  5
4E0
330
4DC
100
AcDbEntity
  8
\U+56FE\U+5C42 1
 62
     7
420
 16777215
370
    18
100
AcDbVertex
100
AcDb2dVertex
 10
344.5171277350513
 20
135.2585828654909
 30
0.0
  0
VERTEX
  5
4E1
330
4DC
100
AcDbEntity
  8
\U+56FE\U+5C42 1
 62
     7
420
 16777215
370
    18
100
AcDbVertex
100
AcDb2dVertex
 10
343.3991942500877
 20
136.0716254000099
 30
0.0
  0
VERTEX
  5
4E2
330
4DC
100
AcDbEntity
  8
\U+56FE\U+5C42 1
 62
     7
420
 16777215
370
    18
100
AcDbVertex
100
AcDb2dVertex
 10
342.0786891505915
 20
136.5794324745357
 30
0.0
  0
VERTEX
  5
4E3
330
4DC
100
AcDbEntity
  8
\U+56FE\U+5C42 1
 62
     7
420
 16777215
370
    18
100
AcDbVertex
100
AcDb2dVertex
 10
340.6558647151833
 20
136.7826931081654
 30
0.0
  0
VERTEX
  5
4E4
330
4DC
100
AcDbEntity
  8
\U+56FE\U+5C42 1
 62
     7
420
 16777215
370
    18
100
AcDbVertex
100
AcDb2dVertex
 10
339.2337292988722
 20
136.5794324745357
 30
0.0
  0
VERTEX
  5
4E5
330
4DC
100
AcDbEntity
  8
\U+56FE\U+5C42 1
 62
     7
420
 16777215
370
    18
100
AcDbVertex
100
AcDb2dVertex
 10
338.0145100066422
 20
136.0716254000099
 30
0.0
  0
VERTEX
  5
4E6
330
4DC
100
AcDbEntity
  8
\U+56FE\U+5C42 1
 62
     7
420
 16777215
370
    18
100
AcDbVertex
100
AcDb2dVertex
 10
336.8969210312272
 20
135.2585828654909
 30
0.0
  0
VERTEX
  5
4E7
330
4DC
100
AcDbEntity
  8
\U+56FE\U+5C42 1
 62
     7
420
 16777215
370
    18
100
AcDbVertex
100
AcDb2dVertex
 10
335.9825926894418
 20
134.1409938900759
 30
0.0
  0
VERTEX
  5
4E8
330
4DC
100
AcDbEntity
  8
\U+56FE\U+5C42 1
 62
     7
420
 16777215
370
    18
100
AcDbVertex
100
AcDb2dVertex
 10
335.4744411053675
 20
132.8201442810311
 30
0.0
  0
VERTEX
  5
4E9
330
4DC
100
AcDbEntity
  8
\U+56FE\U+5C42 1
 62
     7
420
 16777215
370
    18
100
AcDbVertex
100
AcDb2dVertex
 10
335.2715249812863
 20
131.3980088647199
 30
0.0
  0
VERTEX
  5
4EA
330
4DC
100
AcDbEntity
  8
\U+56FE\U+5C42 1
 62
     7
420
 16777215
370
    18
100
AcDbVertex
100
AcDb2dVertex
 10
335.4744411053675
 20
129.9755289388603
 30
0.0
  0
VERTEX
  5
4EB
330
4DC
100
AcDbEntity
  8
\U+56FE\U+5C42 1
 62
     7
420
 16777215
370
    18
100
AcDbVertex
100
AcDb2dVertex
 10
335.9825926894418
 20
128.6546793298155
 30
0.0
  0
VERTEX
  5
4EC
330
4DC
100
AcDbEntity
  8
\U+56FE\U+5C42 1
 62
     7
420
 16777215
370
    18
100
AcDbVertex
100
AcDb2dVertex
 10
336.8969210312272
 20
127.5367458448519
 30
0.0
  0
VERTEX
  5
4ED
330
4DC
100
AcDbEntity
  8
\U+56FE\U+5C42 1
 62
     7
420
 16777215
370
    18
100
AcDbVertex
100
AcDb2dVertex
 10
338.0145100066422
 20
126.7240478198815
 30
0.0
  0
VERTEX
  5
4EE
330
4DC
100
AcDbEntity
  8
\U+56FE\U+5C42 1
 62
     7
420
 16777215
370
    18
100
AcDbVertex
100
AcDb2dVertex
 10
339.2337292988722
 20
126.2162407453557
 30
0.0
  0
VERTEX
  5
4EF
330
4DC
100
AcDbEntity
  8
\U+56FE\U+5C42 1
 62
     7
420
 16777215
370
    18
100
AcDbVertex
100
AcDb2dVertex
 10
340.6558647151833
 20
126.0129801117259
 30
0.0
  0
VERTEX
  5
4F0
330
4DC
100
AcDbEntity
  8
\U+56FE\U+5C42 1
 62
     7
420
 16777215
370
    18
100
AcDbVertex
100
AcDb2dVertex
 10
342.0786891505915
 20
126.2162407453557
 30
0.0
  0
VERTEX
  5
4F1
330
4DC
100
AcDbEntity
  8
\U+56FE\U+5C42 1
 62
     7
420
 16777215
370
    18
100
AcDbVertex
100
AcDb2dVertex
 10
343.3991942500877
 20
126.7240478198815
 30
0.0
  0
VERTEX
  5
4F2
330
4DC
100
AcDbEntity
  8
\U+56FE\U+5C42 1
 62
     7
420
 16777215
370
    18
100
AcDbVertex
100
AcDb2dVertex
 10
344.5171277350513
 20
127.5367458448519
 30
0.0
  0
VERTEX
  5
4F3
330
4DC
100
AcDbEntity
  8
\U+56FE\U+5C42 1
 62
     7
420
 16777215
370
    18
100
AcDbVertex
100
AcDb2dVertex
 10
345.3298257600217
 20
128.6546793298155
 30
0.0
  0
VERTEX
  5
4F4
330
4DC
100
AcDbEntity
  8
\U+56FE\U+5C42 1
 62
     7
420
 16777215
370
    18
100
AcDbVertex
100
AcDb2dVertex
 10
345.8376328345475
 20
129.9755289388603
 30
0.0
  0
VERTEX
  5
4F5
330
4DC
100
AcDbEntity
  8
\U+56FE\U+5C42 1
 62
     7
420
 16777215
370
    18
100
AcDbVertex
100
AcDb2dVertex
 10
346.0408934681773
 20
131.3980088647199
 30
0.0
  0
VERTEX
  5
4F6
330
4DC
100
AcDbEntity
  8
\U+56FE\U+5C42 1
 62
     7
420
 16777215
370
    18
100
AcDbVertex
100
AcDb2dVertex
 10
345.8376328345475
 20
132.8201442810311
 30
0.0
  0
VERTEX
  5
4F7
330
4DC
100
AcDbEntity
  8
\U+56FE\U+5C42 1
 62
     7
420
 16777215
370
    18
100
AcDbVertex
100
AcDb2dVertex
 10
345.3298257600217
 20
134.1409938900759
 30
0.0
  0
VERTEX
  5
4F8
330
4DC
100
AcDbEntity
  8
\U+56FE\U+5C42 1
 62
     7
420
 16777215
370
    18
100
AcDbVertex
100
AcDb2dVertex
 10
344.5171277350513
 20
135.2585828654909
 30
0.0
  0
VERTEX
  5
4F9
330
4DC
100
AcDbEntity
  8
\U+56FE\U+5C42 1
 62
     7
420
 16777215
370
    18
100
AcDbVertex
100
AcDb2dVertex
 10
343.3991942500877
 20
136.0716254000099
 30
0.0
  0
VERTEX
  5
4FA
330
4DC
100
AcDbEntity
  8
\U+56FE\U+5C42 1
 62
     7
420
 16777215
370
    18
100
AcDbVertex
100
AcDb2dVertex
 10
342.0786891505915
 20
136.5794324745357
 30
0.0
  0
VERTEX
  5
4FB
330
4DC
100
AcDbEntity
  8
\U+56FE\U+5C42 1
 62
     7
420
 16777215
370
    18
100
AcDbVertex
100
AcDb2dVertex
 10
340.6558647151833
 20
136.7826931081654
 30
0.0
  0
VERTEX
  5
4FC
330
4DC
100
AcDbEntity
  8
\U+56FE\U+5C42 1
 62
     7
420
 16777215
370
    18
100
AcDbVertex
100
AcDb2dVertex
 10
339.2337292988722
 20
136.5794324745357
 30
0.0
  0
VERTEX
  5
4FD
330
4DC
100
AcDbEntity
  8
\U+56FE\U+5C42 1
 62
     7
420
 16777215
370
    18
100
AcDbVertex
100
AcDb2dVertex
 10
338.0145100066422
 20
136.0716254000099
 30
0.0
  0
VERTEX
  5
4FE
330
4DC
100
AcDbEntity
  8
\U+56FE\U+5C42 1
 62
     7
420
 16777215
370
    18
100
AcDbVertex
100
AcDb2dVertex
 10
336.8969210312272
 20
135.2585828654909
 30
0.0
  0
VERTEX
  5
4FF
330
4DC
100
AcDbEntity
  8
\U+56FE\U+5C42 1
 62
     7
420
 16777215
370
    18
100
AcDbVertex
100
AcDb2dVertex
 10
335.9825926894418
 20
134.1409938900759
 30
0.0
  0
VERTEX
  5
500
330
4DC
100
AcDbEntity
  8
\U+56FE\U+5C42 1
 62
     7
420
 16777215
370
    18
100
AcDbVertex
100
AcDb2dVertex
 10
335.4744411053675
 20
132.8201442810311
 30
0.0
  0
VERTEX
  5
501
330
4DC
100
AcDbEntity
  8
\U+56FE\U+5C42 1
 62
     7
420
 16777215
370
    18
100
AcDbVertex
100
AcDb2dVertex
 10
335.2715249812863
 20
131.3980088647199
 30
0.0
  0
VERTEX
  5
502
330
4DC
100
AcDbEntity
  8
\U+56FE\U+5C42 1
 62
     7
420
 16777215
370
    18
100
AcDbVertex
100
AcDb2dVertex
 10
335.4744411053675
 20
129.9755289388603
 30
0.0
  0
VERTEX
  5
503
330
4DC
100
AcDbEntity
  8
\U+56FE\U+5C42 1
 62
     7
420
 16777215
370
    18
100
AcDbVertex
100
AcDb2dVertex
 10
335.9825926894418
 20
128.6546793298155
 30
0.0
  0
VERTEX
  5
504
330
4DC
100
AcDbEntity
  8
\U+56FE\U+5C42 1
 62
     7
420
 16777215
370
    18
100
AcDbVertex
100
AcDb2dVertex
 10
336.8969210312272
 20
127.5367458448519
 30
0.0
  0
VERTEX
  5
505
330
4DC
100
AcDbEntity
  8
\U+56FE\U+5C42 1
 62
     7
420
 16777215
370
    18
100
AcDbVertex
100
AcDb2dVertex
 10
338.0145100066422
 20
126.7240478198815
 30
0.0
  0
VERTEX
  5
506
330
4DC
100
AcDbEntity
  8
\U+56FE\U+5C42 1
 62
     7
420
 16777215
370
    18
100
AcDbVertex
100
AcDb2dVertex
 10
339.2337292988722
 20
126.2162407453557
 30
0.0
  0
VERTEX
  5
507
330
4DC
100
AcDbEntity
  8
\U+56FE\U+5C42 1
 62
     7
420
 16777215
370
    18
100
AcDbVertex
100
AcDb2dVertex
 10
340.6558647151833
 20
126.0129801117259
 30
0.0
  0
VERTEX
  5
508
330
4DC
100
AcDbEntity
  8
\U+56FE\U+5C42 1
 62
     7
420
 16777215
370
    18
100
AcDbVertex
100
AcDb2dVertex
 10
342.0786891505915
 20
126.2162407453557
 30
0.0
  0
VERTEX
  5
509
330
4DC
100
AcDbEntity
  8
\U+56FE\U+5C42 1
 62
     7
420
 16777215
370
    18
100
AcDbVertex
100
AcDb2dVertex
 10
343.3991942500877
 20
126.7240478198815
 30
0.0
  0
VERTEX
  5
50A
330
4DC
100
AcDbEntity
  8
\U+56FE\U+5C42 1
 62
     7
420
 16777215
370
    18
100
AcDbVertex
100
AcDb2dVertex
 10
344.5171277350513
 20
127.5367458448519
 30
0.0
  0
VERTEX
  5
50B
330
4DC
100
AcDbEntity
  8
\U+56FE\U+5C42 1
 62
     7
420
 16777215
370
    18
100
AcDbVertex
100
AcDb2dVertex
 10
345.3298257600217
 20
128.6546793298155
 30
0.0
  0
VERTEX
  5
50C
330
4DC
100
AcDbEntity
  8
\U+56FE\U+5C42 1
 62
     7
420
 16777215
370
    18
100
AcDbVertex
100
AcDb2dVertex
 10
345.8376328345475
 20
129.9755289388603
 30
0.0
  0
VERTEX
  5
50D
330
4DC
100
AcDbEntity
  8
\U+56FE\U+5C42 1
 62
     7
420
 16777215
370
    18
100
AcDbVertex
100
AcDb2dVertex
 10
346.0408934681773
 20
131.3980088647199
 30
0.0
  0
VERTEX
  5
50E
330
4DC
100
AcDbEntity
  8
\U+56FE\U+5C42 1
 62
     7
420
 16777215
370
    18
100
AcDbVertex
100
AcDb2dVertex
 10
345.8376328345475
 20
132.8201442810311
 30
0.0
  0
VERTEX
  5
50F
330
4DC
100
AcDbEntity
  8
\U+56FE\U+5C42 1
 62
     7
420
 16777215
370
    18
100
AcDbVertex
100
AcDb2dVertex
 10
345.3298257600217
 20
134.039363573261
 30
0.0
  0
VERTEX
  5
510
330
4DC
100
AcDbEntity
  8
\U+56FE\U+5C42 1
 62
     7
420
 16777215
370
    18
100
AcDbVertex
100
AcDb2dVertex
 10
344.4154974182364
 20
135.1572970582246
 30
0.0
  0
VERTEX
  5
511
330
4DC
100
AcDbEntity
  8
\U+56FE\U+5C42 1
 62
     7
420
 16777215
370
    18
100
AcDbVertex
100
AcDb2dVertex
 10
343.2975639332728
 20
135.969995083195
 30
0.0
  0
VERTEX
  5
512
330
4DC
100
AcDbEntity
  8
\U+56FE\U+5C42 1
 62
     7
420
 16777215
370
    18
100
AcDbVertex
100
AcDb2dVertex
 10
342.0786891505915
 20
136.5794324745357
 30
0.0
  0
VERTEX
  5
513
330
4DC
100
AcDbEntity
  8
\U+56FE\U+5C42 1
 62
     7
420
 16777215
370
    18
100
AcDbVertex
100
AcDb2dVertex
 10
340.6558647151833
 20
136.6810627913506
 30
0.0
  0
VERTEX
  5
514
330
4DC
100
AcDbEntity
  8
\U+56FE\U+5C42 1
 62
     7
420
 16777215
370
    18
100
AcDbVertex
100
AcDb2dVertex
 10
339.335359615687
 20
136.5794324745357
 30
0.0
  0
VERTEX
  5
515
330
4DC
100
AcDbEntity
  8
\U+56FE\U+5C42 1
 62
     7
420
 16777215
370
    18
100
AcDbVertex
100
AcDb2dVertex
 10
338.0145100066422
 20
135.969995083195
 30
0.0
  0
VERTEX
  5
516
330
4DC
100
AcDbEntity
  8
\U+56FE\U+5C42 1
 62
     7
420
 16777215
370
    18
100
AcDbVertex
100
AcDb2dVertex
 10
336.8969210312272
 20
135.1572970582246
 30
0.0
  0
VERTEX
  5
517
330
4DC
100
AcDbEntity
  8
\U+56FE\U+5C42 1
 62
     7
420
 16777215
370
    18
100
AcDbVertex
100
AcDb2dVertex
 10
336.0842230062568
 20
134.039363573261
 30
0.0
  0
VERTEX
  5
518
330
4DC
100
AcDbEntity
  8
\U+56FE\U+5C42 1
 62
     7
420
 16777215
370
    18
100
AcDbVertex
100
AcDb2dVertex
 10
335.4744411053675
 20
132.8201442810311
 30
0.0
  0
VERTEX
  5
519
330
4DC
100
AcDbEntity
  8
\U+56FE\U+5C42 1
 62
     7
420
 16777215
370
    18
100
AcDbVertex
100
AcDb2dVertex
 10
335.3728107885527
 20
131.3980088647199
 30
0.0
  0
VERTEX
  5
51A
330
4DC
100
AcDbEntity
  8
\U+56FE\U+5C42 1
 62
     7
420
 16777215
370
    18
100
AcDbVertex
100
AcDb2dVertex
 10
335.4744411053675
 20
129.9755289388603
 30
0.0
  0
VERTEX
  5
51B
330
4DC
100
AcDbEntity
  8
\U+56FE\U+5C42 1
 62
     7
420
 16777215
370
    18
100
AcDbVertex
100
AcDb2dVertex
 10
336.0842230062568
 20
128.7563096466304
 30
0.0
  0
VERTEX
  5
51C
330
4DC
100
AcDbEntity
  8
\U+56FE\U+5C42 1
 62
     7
420
 16777215
370
    18
100
AcDbVertex
100
AcDb2dVertex
 10
336.8969210312272
 20
127.6383761616668
 30
0.0
  0
VERTEX
  5
51D
330
4DC
100
AcDbEntity
  8
\U+56FE\U+5C42 1
 62
     7
420
 16777215
370
    18
100
AcDbVertex
100
AcDb2dVertex
 10
338.0145100066422
 20
126.8256781366964
 30
0.0
  0
VERTEX
  5
51E
330
4DC
100
AcDbEntity
  8
\U+56FE\U+5C42 1
 62
     7
420
 16777215
370
    18
100
AcDbVertex
100
AcDb2dVertex
 10
339.335359615687
 20
126.2162407453557
 30
0.0
  0
VERTEX
  5
51F
330
4DC
100
AcDbEntity
  8
\U+56FE\U+5C42 1
 62
     7
420
 16777215
370
    18
100
AcDbVertex
100
AcDb2dVertex
 10
340.6558647151833
 20
126.0129801117259
 30
0.0
  0
VERTEX
  5
520
330
4DC
100
AcDbEntity
  8
\U+56FE\U+5C42 1
 62
     7
420
 16777215
370
    18
100
AcDbVertex
100
AcDb2dVertex
 10
342.0786891505915
 20
126.2162407453557
 30
0.0
  0
VERTEX
  5
521
330
4DC
100
AcDbEntity
  8
\U+56FE\U+5C42 1
 62
     7
420
 16777215
370
    18
100
AcDbVertex
100
AcDb2dVertex
 10
343.2975639332728
 20
126.8256781366964
 30
0.0
  0
VERTEX
  5
522
330
4DC
100
AcDbEntity
  8
\U+56FE\U+5C42 1
 62
     7
420
 16777215
370
    18
100
AcDbVertex
100
AcDb2dVertex
 10
344.4154974182364
 20
127.6383761616668
 30
0.0
  0
VERTEX
  5
523
330
4DC
100
AcDbEntity
  8
\U+56FE\U+5C42 1
 62
     7
420
 16777215
370
    18
100
AcDbVertex
100
AcDb2dVertex
 10
345.3298257600217
 20
128.7563096466304
 30
0.0
  0
VERTEX
  5
524
330
4DC
100
AcDbEntity
  8
\U+56FE\U+5C42 1
 62
     7
420
 16777215
370
    18
100
AcDbVertex
100
AcDb2dVertex
 10
345.8376328345475
 20
129.9755289388603
 30
0.0
  0
VERTEX
  5
525
330
4DC
100
AcDbEntity
  8
\U+56FE\U+5C42 1
 62
     7
420
 16777215
370
    18
100
AcDbVertex
100
AcDb2dVertex
 10
346.0408934681773
 20
131.3980088647199
 30
0.0
  0
SEQEND
  5
526
330
4DC
100
AcDbEntity
  8
\U+56FE\U+5C42 1
370
    18
  0
POLYLINE
  5
527
330
1F
100
AcDbEntity
  8
\U+56FE\U+5C42 1
 62
     7
420
 16777215
370
    18
100
AcDb2dPolyline
 66
     1
 10
0.0
 20
0.0
 30
0.0
  0
VERTEX
  5
528
330
527
100
AcDbEntity
  8
\U+56FE\U+5C42 1
 62
     7
420
 16777215
370
    18
100
AcDbVertex
100
AcDb2dVertex
 10
341.3672769328874
 20
134.1409938900759
 30
0.0
  0
VERTEX
  5
529
330
527
100
AcDbEntity
  8
\U+56FE\U+5C42 1
 62
     7
420
 16777215
370
    18
100
AcDbVertex
100
AcDb2dVertex
 10
341.1643608088061
 20
134.5475151573353
 30
0.0
  0
VERTEX
  5
52A
330
527
100
AcDbEntity
  8
\U+56FE\U+5C42 1
 62
     7
420
 16777215
370
    18
100
AcDbVertex
100
AcDb2dVertex
 10
340.6558647151833
 20
134.7507757909651
 30
0.0
  0
VERTEX
  5
52B
330
527
100
AcDbEntity
  8
\U+56FE\U+5C42 1
 62
     7
420
 16777215
370
    18
100
AcDbVertex
100
AcDb2dVertex
 10
340.1480576406574
 20
134.5475151573353
 30
0.0
  0
VERTEX
  5
52C
330
527
100
AcDbEntity
  8
\U+56FE\U+5C42 1
 62
     7
420
 16777215
370
    18
100
AcDbVertex
100
AcDb2dVertex
 10
339.9447970070277
 20
134.1409938900759
 30
0.0
  0
VERTEX
  5
52D
330
527
100
AcDbEntity
  8
\U+56FE\U+5C42 1
 62
     7
420
 16777215
370
    18
100
AcDbVertex
100
AcDb2dVertex
 10
340.1480576406574
 20
133.6328423060015
 30
0.0
  0
VERTEX
  5
52E
330
527
100
AcDbEntity
  8
\U+56FE\U+5C42 1
 62
     7
420
 16777215
370
    18
100
AcDbVertex
100
AcDb2dVertex
 10
340.6558647151833
 20
133.4299261819203
 30
0.0
  0
VERTEX
  5
52F
330
527
100
AcDbEntity
  8
\U+56FE\U+5C42 1
 62
     7
420
 16777215
370
    18
100
AcDbVertex
100
AcDb2dVertex
 10
341.1643608088061
 20
133.6328423060015
 30
0.0
  0
VERTEX
  5
530
330
527
100
AcDbEntity
  8
\U+56FE\U+5C42 1
 62
     7
420
 16777215
370
    18
100
AcDbVertex
100
AcDb2dVertex
 10
341.3672769328874
 20
134.1409938900759
 30
0.0
  0
VERTEX
  5
531
330
527
100
AcDbEntity
  8
\U+56FE\U+5C42 1
 62
     7
420
 16777215
370
    18
100
AcDbVertex
100
AcDb2dVertex
 10
341.1643608088061
 20
134.5475151573353
 30
0.0
  0
VERTEX
  5
532
330
527
100
AcDbEntity
  8
\U+56FE\U+5C42 1
 62
     7
420
 16777215
370
    18
100
AcDbVertex
100
AcDb2dVertex
 10
340.6558647151833
 20
134.7507757909651
 30
0.0
  0
VERTEX
  5
533
330
527
100
AcDbEntity
  8
\U+56FE\U+5C42 1
 62
     7
420
 16777215
370
    18
100
AcDbVertex
100
AcDb2dVertex
 10
340.2496879574723
 20
134.5475151573353
 30
0.0
  0
VERTEX
  5
534
330
527
100
AcDbEntity
  8
\U+56FE\U+5C42 1
 62
     7
420
 16777215
370
    18
100
AcDbVertex
100
AcDb2dVertex
 10
340.0464273238426
 20
134.1409938900759
 30
0.0
  0
VERTEX
  5
535
330
527
100
AcDbEntity
  8
\U+56FE\U+5C42 1
 62
     7
420
 16777215
370
    18
100
AcDbVertex
100
AcDb2dVertex
 10
340.2496879574723
 20
133.6328423060015
 30
0.0
  0
VERTEX
  5
536
330
527
100
AcDbEntity
  8
\U+56FE\U+5C42 1
 62
     7
420
 16777215
370
    18
100
AcDbVertex
100
AcDb2dVertex
 10
340.6558647151833
 20
133.4299261819203
 30
0.0
  0
VERTEX
  5
537
330
527
100
AcDbEntity
  8
\U+56FE\U+5C42 1
 62
     7
420
 16777215
370
    18
100
AcDbVertex
100
AcDb2dVertex
 10
341.1643608088061
 20
133.6328423060015
 30
0.0
  0
VERTEX
  5
538
330
527
100
AcDbEntity
  8
\U+56FE\U+5C42 1
 62
     7
420
 16777215
370
    18
100
AcDbVertex
100
AcDb2dVertex
 10
341.3672769328874
 20
134.1409938900759
 30
0.0
  0
SEQEND
  5
539
330
527
100
AcDbEntity
  8
\U+56FE\U+5C42 1
370
    18
  0
POLYLINE
  5
53A
330
1F
100
AcDbEntity
  8
\U+56FE\U+5C42 1
 62
     7
420
 16777215
370
    18
100
AcDb2dPolyline
 66
     1
 10
0.0
 20
0.0
 30
0.0
  0
VERTEX
  5
53B
330
53A
100
AcDbEntity
  8
\U+56FE\U+5C42 1
 62
     7
420
 16777215
370
    18
100
AcDbVertex
100
AcDb2dVertex
 10
341.265991125621
 20
134.1409938900759
 30
0.0
  0
VERTEX
  5
53C
330
53A
100
AcDbEntity
  8
\U+56FE\U+5C42 1
 62
     7
420
 16777215
370
    18
100
AcDbVertex
100
AcDb2dVertex
 10
341.0627304919913
 20
134.5475151573353
 30
0.0
  0
VERTEX
  5
53D
330
53A
100
AcDbEntity
  8
\U+56FE\U+5C42 1
 62
     7
420
 16777215
370
    18
100
AcDbVertex
100
AcDb2dVertex
 10
340.6558647151833
 20
134.6491454741502
 30
0.0
  0
VERTEX
  5
53E
330
53A
100
AcDbEntity
  8
\U+56FE\U+5C42 1
 62
     7
420
 16777215
370
    18
100
AcDbVertex
100
AcDb2dVertex
 10
340.2496879574723
 20
134.5475151573353
 30
0.0
  0
VERTEX
  5
53F
330
53A
100
AcDbEntity
  8
\U+56FE\U+5C42 1
 62
     7
420
 16777215
370
    18
100
AcDbVertex
100
AcDb2dVertex
 10
340.0464273238426
 20
134.1409938900759
 30
0.0
  0
VERTEX
  5
540
330
53A
100
AcDbEntity
  8
\U+56FE\U+5C42 1
 62
     7
420
 16777215
370
    18
100
AcDbVertex
100
AcDb2dVertex
 10
340.2496879574723
 20
133.7344726228164
 30
0.0
  0
VERTEX
  5
541
330
53A
100
AcDbEntity
  8
\U+56FE\U+5C42 1
 62
     7
420
 16777215
370
    18
100
AcDbVertex
100
AcDb2dVertex
 10
340.6558647151833
 20
133.5315564987352
 30
0.0
  0
VERTEX
  5
542
330
53A
100
AcDbEntity
  8
\U+56FE\U+5C42 1
 62
     7
420
 16777215
370
    18
100
AcDbVertex
100
AcDb2dVertex
 10
341.0627304919913
 20
133.7344726228164
 30
0.0
  0
VERTEX
  5
543
330
53A
100
AcDbEntity
  8
\U+56FE\U+5C42 1
 62
     7
420
 16777215
370
    18
100
AcDbVertex
100
AcDb2dVertex
 10
341.265991125621
 20
134.1409938900759
 30
0.0
  0
SEQEND
  5
544
330
53A
100
AcDbEntity
  8
\U+56FE\U+5C42 1
370
    18
  0
POLYLINE
  5
545
330
1F
100
AcDbEntity
  8
\U+56FE\U+5C42 1
 62
     7
420
 16777215
370
    18
100
AcDb2dPolyline
 66
     1
 10
0.0
 20
0.0
 30
0.0
  0
VERTEX
  5
546
330
545
100
AcDbEntity
  8
\U+56FE\U+5C42 1
 62
     7
420
 16777215
370
    18
100
AcDbVertex
100
AcDb2dVertex
 10
341.1643608088061
 20
134.1409938900759
 30
0.0
  0
VERTEX
  5
547
330
545
100
AcDbEntity
  8
\U+56FE\U+5C42 1
 62
     7
420
 16777215
370
    18
100
AcDbVertex
100
AcDb2dVertex
 10
341.0627304919913
 20
134.445540330972
 30
0.0
  0
VERTEX
  5
548
330
545
100
AcDbEntity
  8
\U+56FE\U+5C42 1
 62
     7
420
 16777215
370
    18
100
AcDbVertex
100
AcDb2dVertex
 10
340.6558647151833
 20
134.5475151573353
 30
0.0
  0
VERTEX
  5
549
330
545
100
AcDbEntity
  8
\U+56FE\U+5C42 1
 62
     7
420
 16777215
370
    18
100
AcDbVertex
100
AcDb2dVertex
 10
340.3516627838357
 20
134.445540330972
 30
0.0
  0
VERTEX
  5
54A
330
545
100
AcDbEntity
  8
\U+56FE\U+5C42 1
 62
     7
420
 16777215
370
    18
100
AcDbVertex
100
AcDb2dVertex
 10
340.1480576406574
 20
134.1409938900759
 30
0.0
  0
VERTEX
  5
54B
330
545
100
AcDbEntity
  8
\U+56FE\U+5C42 1
 62
     7
420
 16777215
370
    18
100
AcDbVertex
100
AcDb2dVertex
 10
340.3516627838357
 20
133.7344726228164
 30
0.0
  0
VERTEX
  5
54C
330
545
100
AcDbEntity
  8
\U+56FE\U+5C42 1
 62
     7
420
 16777215
370
    18
100
AcDbVertex
100
AcDb2dVertex
 10
340.6558647151833
 20
133.6328423060015
 30
0.0
  0
VERTEX
  5
54D
330
545
100
AcDbEntity
  8
\U+56FE\U+5C42 1
 62
     7
420
 16777215
370
    18
100
AcDbVertex
100
AcDb2dVertex
 10
341.0627304919913
 20
133.7344726228164
 30
0.0
  0
VERTEX
  5
54E
330
545
100
AcDbEntity
  8
\U+56FE\U+5C42 1
 62
     7
420
 16777215
370
    18
100
AcDbVertex
100
AcDb2dVertex
 10
341.1643608088061
 20
134.1409938900759
 30
0.0
  0
SEQEND
  5
54F
330
545
100
AcDbEntity
  8
\U+56FE\U+5C42 1
370
    18
  0
POLYLINE
  5
550
330
1F
100
AcDbEntity
  8
\U+56FE\U+5C42 1
 62
     7
420
 16777215
370
    18
100
AcDb2dPolyline
 66
     1
 10
0.0
 20
0.0
 30
0.0
  0
VERTEX
  5
551
330
550
100
AcDbEntity
  8
\U+56FE\U+5C42 1
 62
     7
420
 16777215
370
    18
100
AcDbVertex
100
AcDb2dVertex
 10
341.0627304919913
 20
134.1409938900759
 30
0.0
  0
VERTEX
  5
552
330
550
100
AcDbEntity
  8
\U+56FE\U+5C42 1
 62
     7
420
 16777215
370
    18
100
AcDbVertex
100
AcDb2dVertex
 10
340.9607556656279
 20
134.3442545237056
 30
0.0
  0
VERTEX
  5
553
330
550
100
AcDbEntity
  8
\U+56FE\U+5C42 1
 62
     7
420
 16777215
370
    18
100
AcDbVertex
100
AcDb2dVertex
 10
340.6558647151833
 20
134.445540330972
 30
0.0
  0
VERTEX
  5
554
330
550
100
AcDbEntity
  8
\U+56FE\U+5C42 1
 62
     7
420
 16777215
370
    18
100
AcDbVertex
100
AcDb2dVertex
 10
340.452948591102
 20
134.3442545237056
 30
0.0
  0
VERTEX
  5
555
330
550
100
AcDbEntity
  8
\U+56FE\U+5C42 1
 62
     7
420
 16777215
370
    18
100
AcDbVertex
100
AcDb2dVertex
 10
340.3516627838357
 20
134.1409938900759
 30
0.0
  0
VERTEX
  5
556
330
550
100
AcDbEntity
  8
\U+56FE\U+5C42 1
 62
     7
420
 16777215
370
    18
100
AcDbVertex
100
AcDb2dVertex
 10
340.452948591102
 20
133.8364474491798
 30
0.0
  0
VERTEX
  5
557
330
550
100
AcDbEntity
  8
\U+56FE\U+5C42 1
 62
     7
420
 16777215
370
    18
100
AcDbVertex
100
AcDb2dVertex
 10
340.6558647151833
 20
133.7344726228164
 30
0.0
  0
VERTEX
  5
558
330
550
100
AcDbEntity
  8
\U+56FE\U+5C42 1
 62
     7
420
 16777215
370
    18
100
AcDbVertex
100
AcDb2dVertex
 10
340.9607556656279
 20
133.8364474491798
 30
0.0
  0
VERTEX
  5
559
330
550
100
AcDbEntity
  8
\U+56FE\U+5C42 1
 62
     7
420
 16777215
370
    18
100
AcDbVertex
100
AcDb2dVertex
 10
341.0627304919913
 20
134.1409938900759
 30
0.0
  0
SEQEND
  5
55A
330
550
100
AcDbEntity
  8
\U+56FE\U+5C42 1
370
    18
  0
POLYLINE
  5
55B
330
1F
100
AcDbEntity
  8
\U+56FE\U+5C42 1
 62
     7
420
 16777215
370
    18
100
AcDb2dPolyline
 66
     1
 10
0.0
 20
0.0
 30
0.0
  0
VERTEX
  5
55C
330
55B
100
AcDbEntity
  8
\U+56FE\U+5C42 1
 62
     7
420
 16777215
370
    18
100
AcDbVertex
100
AcDb2dVertex
 10
340.9607556656279
 20
134.1409938900759
 30
0.0
  0
VERTEX
  5
55D
330
55B
100
AcDbEntity
  8
\U+56FE\U+5C42 1
 62
     7
420
 16777215
370
    18
100
AcDbVertex
100
AcDb2dVertex
 10
340.859125348813
 20
134.2426242068908
 30
0.0
  0
VERTEX
  5
55E
330
55B
100
AcDbEntity
  8
\U+56FE\U+5C42 1
 62
     7
420
 16777215
370
    18
100
AcDbVertex
100
AcDb2dVertex
 10
340.6558647151833
 20
134.3442545237056
 30
0.0
  0
VERTEX
  5
55F
330
55B
100
AcDbEntity
  8
\U+56FE\U+5C42 1
 62
     7
420
 16777215
370
    18
100
AcDbVertex
100
AcDb2dVertex
 10
340.452948591102
 20
134.2426242068908
 30
0.0
  0
VERTEX
  5
560
330
55B
100
AcDbEntity
  8
\U+56FE\U+5C42 1
 62
     7
420
 16777215
370
    18
100
AcDbVertex
100
AcDb2dVertex
 10
340.452948591102
 20
134.1409938900759
 30
0.0
  0
VERTEX
  5
561
330
55B
100
AcDbEntity
  8
\U+56FE\U+5C42 1
 62
     7
420
 16777215
370
    18
100
AcDbVertex
100
AcDb2dVertex
 10
340.452948591102
 20
133.9380777659946
 30
0.0
  0
VERTEX
  5
562
330
55B
100
AcDbEntity
  8
\U+56FE\U+5C42 1
 62
     7
420
 16777215
370
    18
100
AcDbVertex
100
AcDb2dVertex
 10
340.6558647151833
 20
133.8364474491798
 30
0.0
  0
VERTEX
  5
563
330
55B
100
AcDbEntity
  8
\U+56FE\U+5C42 1
 62
     7
420
 16777215
370
    18
100
AcDbVertex
100
AcDb2dVertex
 10
340.859125348813
 20
133.9380777659946
 30
0.0
  0
VERTEX
  5
564
330
55B
100
AcDbEntity
  8
\U+56FE\U+5C42 1
 62
     7
420
 16777215
370
    18
100
AcDbVertex
100
AcDb2dVertex
 10
340.9607556656279
 20
134.1409938900759
 30
0.0
  0
SEQEND
  5
565
330
55B
100
AcDbEntity
  8
\U+56FE\U+5C42 1
370
    18
  0
POLYLINE
  5
566
330
1F
100
AcDbEntity
  8
\U+56FE\U+5C42 1
 62
     7
420
 16777215
370
    18
100
AcDb2dPolyline
 66
     1
 10
0.0
 20
0.0
 30
0.0
  0
VERTEX
  5
567
330
566
100
AcDbEntity
  8
\U+56FE\U+5C42 1
 62
     7
420
 16777215
370
    18
100
AcDbVertex
100
AcDb2dVertex
 10
343.195933616458
 20
127.5367458448519
 30
0.0
  0
VERTEX
  5
568
330
566
100
AcDbEntity
  8
\U+56FE\U+5C42 1
 62
     7
420
 16777215
370
    18
100
AcDbVertex
100
AcDb2dVertex
 10
343.0946478091917
 20
128.0452419384748
 30
0.0
  0
VERTEX
  5
569
330
566
100
AcDbEntity
  8
\U+56FE\U+5C42 1
 62
     7
420
 16777215
370
    18
100
AcDbVertex
100
AcDb2dVertex
 10
342.6881265419321
 20
128.4510741866372
 30
0.0
  0
VERTEX
  5
56A
330
566
100
AcDbEntity
  8
\U+56FE\U+5C42 1
 62
     7
420
 16777215
370
    18
100
AcDbVertex
100
AcDb2dVertex
 10
342.2816052746726
 20
128.5530490130006
 30
0.0
  0
VERTEX
  5
56B
330
566
100
AcDbEntity
  8
\U+56FE\U+5C42 1
 62
     7
420
 16777215
370
    18
100
AcDbVertex
100
AcDb2dVertex
 10
341.7737982001469
 20
128.4510741866372
 30
0.0
  0
VERTEX
  5
56C
330
566
100
AcDbEntity
  8
\U+56FE\U+5C42 1
 62
     7
420
 16777215
370
    18
100
AcDbVertex
100
AcDb2dVertex
 10
341.3672769328874
 20
128.0452419384748
 30
0.0
  0
VERTEX
  5
56D
330
566
100
AcDbEntity
  8
\U+56FE\U+5C42 1
 62
     7
420
 16777215
370
    18
100
AcDbVertex
100
AcDb2dVertex
 10
341.265991125621
 20
127.5367458448519
 30
0.0
  0
VERTEX
  5
56E
330
566
100
AcDbEntity
  8
\U+56FE\U+5C42 1
 62
     7
420
 16777215
370
    18
100
AcDbVertex
100
AcDb2dVertex
 10
341.3672769328874
 20
127.1309135966895
 30
0.0
  0
VERTEX
  5
56F
330
566
100
AcDbEntity
  8
\U+56FE\U+5C42 1
 62
     7
420
 16777215
370
    18
100
AcDbVertex
100
AcDb2dVertex
 10
341.7737982001469
 20
126.7240478198815
 30
0.0
  0
VERTEX
  5
570
330
566
100
AcDbEntity
  8
\U+56FE\U+5C42 1
 62
     7
420
 16777215
370
    18
100
AcDbVertex
100
AcDb2dVertex
 10
342.2816052746726
 20
126.6227620126152
 30
0.0
  0
VERTEX
  5
571
330
566
100
AcDbEntity
  8
\U+56FE\U+5C42 1
 62
     7
420
 16777215
370
    18
100
AcDbVertex
100
AcDb2dVertex
 10
342.6881265419321
 20
126.7240478198815
 30
0.0
  0
VERTEX
  5
572
330
566
100
AcDbEntity
  8
\U+56FE\U+5C42 1
 62
     7
420
 16777215
370
    18
100
AcDbVertex
100
AcDb2dVertex
 10
343.0946478091917
 20
127.1309135966895
 30
0.0
  0
VERTEX
  5
573
330
566
100
AcDbEntity
  8
\U+56FE\U+5C42 1
 62
     7
420
 16777215
370
    18
100
AcDbVertex
100
AcDb2dVertex
 10
343.195933616458
 20
127.5367458448519
 30
0.0
  0
SEQEND
  5
574
330
566
100
AcDbEntity
  8
\U+56FE\U+5C42 1
370
    18
  0
POLYLINE
  5
575
330
1F
100
AcDbEntity
  8
\U+56FE\U+5C42 1
 62
     7
420
 16777215
370
    18
100
AcDb2dPolyline
 66
     1
 10
0.0
 20
0.0
 30
0.0
  0
VERTEX
  5
576
330
575
100
AcDbEntity
  8
\U+56FE\U+5C42 1
 62
     7
420
 16777215
370
    18
100
AcDbVertex
100
AcDb2dVertex
 10
343.0946478091917
 20
127.5367458448519
 30
0.0
  0
VERTEX
  5
577
330
575
100
AcDbEntity
  8
\U+56FE\U+5C42 1
 62
     7
420
 16777215
370
    18
100
AcDbVertex
100
AcDb2dVertex
 10
342.9926729828283
 20
128.0452419384748
 30
0.0
  0
VERTEX
  5
578
330
575
100
AcDbEntity
  8
\U+56FE\U+5C42 1
 62
     7
420
 16777215
370
    18
100
AcDbVertex
100
AcDb2dVertex
 10
342.6881265419321
 20
128.3497883793709
 30
0.0
  0
VERTEX
  5
579
330
575
100
AcDbEntity
  8
\U+56FE\U+5C42 1
 62
     7
420
 16777215
370
    18
100
AcDbVertex
100
AcDb2dVertex
 10
342.2816052746726
 20
128.4510741866372
 30
0.0
  0
VERTEX
  5
57A
330
575
100
AcDbEntity
  8
\U+56FE\U+5C42 1
 62
     7
420
 16777215
370
    18
100
AcDbVertex
100
AcDb2dVertex
 10
341.7737982001469
 20
128.3497883793709
 30
0.0
  0
VERTEX
  5
57B
330
575
100
AcDbEntity
  8
\U+56FE\U+5C42 1
 62
     7
420
 16777215
370
    18
100
AcDbVertex
100
AcDb2dVertex
 10
341.4685627401537
 20
128.0452419384748
 30
0.0
  0
VERTEX
  5
57C
330
575
100
AcDbEntity
  8
\U+56FE\U+5C42 1
 62
     7
420
 16777215
370
    18
100
AcDbVertex
100
AcDb2dVertex
 10
341.3672769328874
 20
127.5367458448519
 30
0.0
  0
VERTEX
  5
57D
330
575
100
AcDbEntity
  8
\U+56FE\U+5C42 1
 62
     7
420
 16777215
370
    18
100
AcDbVertex
100
AcDb2dVertex
 10
341.4685627401537
 20
127.1309135966895
 30
0.0
  0
VERTEX
  5
57E
330
575
100
AcDbEntity
  8
\U+56FE\U+5C42 1
 62
     7
420
 16777215
370
    18
100
AcDbVertex
100
AcDb2dVertex
 10
341.7737982001469
 20
126.8256781366964
 30
0.0
  0
VERTEX
  5
57F
330
575
100
AcDbEntity
  8
\U+56FE\U+5C42 1
 62
     7
420
 16777215
370
    18
100
AcDbVertex
100
AcDb2dVertex
 10
342.2816052746726
 20
126.7240478198815
 30
0.0
  0
VERTEX
  5
580
330
575
100
AcDbEntity
  8
\U+56FE\U+5C42 1
 62
     7
420
 16777215
370
    18
100
AcDbVertex
100
AcDb2dVertex
 10
342.6881265419321
 20
126.8256781366964
 30
0.0
  0
VERTEX
  5
581
330
575
100
AcDbEntity
  8
\U+56FE\U+5C42 1
 62
     7
420
 16777215
370
    18
100
AcDbVertex
100
AcDb2dVertex
 10
342.9926729828283
 20
127.1309135966895
 30
0.0
  0
VERTEX
  5
582
330
575
100
AcDbEntity
  8
\U+56FE\U+5C42 1
 62
     7
420
 16777215
370
    18
100
AcDbVertex
100
AcDb2dVertex
 10
343.0946478091917
 20
127.5367458448519
 30
0.0
  0
VERTEX
  5
583
330
575
100
AcDbEntity
  8
\U+56FE\U+5C42 1
 62
     7
420
 16777215
370
    18
100
AcDbVertex
100
AcDb2dVertex
 10
342.789756858747
 20
128.1468722552897
 30
0.0
  0
VERTEX
  5
584
330
575
100
AcDbEntity
  8
\U+56FE\U+5C42 1
 62
     7
420
 16777215
370
    18
100
AcDbVertex
100
AcDb2dVertex
 10
342.2816052746726
 20
128.3497883793709
 30
0.0
  0
VERTEX
  5
585
330
575
100
AcDbEntity
  8
\U+56FE\U+5C42 1
 62
     7
420
 16777215
370
    18
100
AcDbVertex
100
AcDb2dVertex
 10
341.6718233737835
 20
128.1468722552897
 30
0.0
  0
VERTEX
  5
586
330
575
100
AcDbEntity
  8
\U+56FE\U+5C42 1
 62
     7
420
 16777215
370
    18
100
AcDbVertex
100
AcDb2dVertex
 10
341.3672769328874
 20
127.5367458448519
 30
0.0
  0
VERTEX
  5
587
330
575
100
AcDbEntity
  8
\U+56FE\U+5C42 1
 62
     7
420
 16777215
370
    18
100
AcDbVertex
100
AcDb2dVertex
 10
341.6718233737835
 20
127.0289387703261
 30
0.0
  0
VERTEX
  5
588
330
575
100
AcDbEntity
  8
\U+56FE\U+5C42 1
 62
     7
420
 16777215
370
    18
100
AcDbVertex
100
AcDb2dVertex
 10
342.2816052746726
 20
126.7240478198815
 30
0.0
  0
VERTEX
  5
589
330
575
100
AcDbEntity
  8
\U+56FE\U+5C42 1
 62
     7
420
 16777215
370
    18
100
AcDbVertex
100
AcDb2dVertex
 10
342.789756858747
 20
127.0289387703261
 30
0.0
  0
VERTEX
  5
58A
330
575
100
AcDbEntity
  8
\U+56FE\U+5C42 1
 62
     7
420
 16777215
370
    18
100
AcDbVertex
100
AcDb2dVertex
 10
343.0946478091917
 20
127.5367458448519
 30
0.0
  0
SEQEND
  5
58B
330
575
100
AcDbEntity
  8
\U+56FE\U+5C42 1
370
    18
  0
POLYLINE
  5
58C
330
1F
100
AcDbEntity
  8
\U+56FE\U+5C42 1
 62
     7
420
 16777215
370
    18
100
AcDb2dPolyline
 66
     1
 10
0.0
 20
0.0
 30
0.0
  0
VERTEX
  5
58D
330
58C
100
AcDbEntity
  8
\U+56FE\U+5C42 1
 62
     7
420
 16777215
370
    18
100
AcDbVertex
100
AcDb2dVertex
 10
342.789756858747
 20
127.5367458448519
 30
0.0
  0
VERTEX
  5
58E
330
58C
100
AcDbEntity
  8
\U+56FE\U+5C42 1
 62
     7
420
 16777215
370
    18
100
AcDbVertex
100
AcDb2dVertex
 10
342.5864962251173
 20
127.9436116216599
 30
0.0
  0
VERTEX
  5
58F
330
58C
100
AcDbEntity
  8
\U+56FE\U+5C42 1
 62
     7
420
 16777215
370
    18
100
AcDbVertex
100
AcDb2dVertex
 10
342.2816052746726
 20
128.1468722552897
 30
0.0
  0
VERTEX
  5
590
330
58C
100
AcDbEntity
  8
\U+56FE\U+5C42 1
 62
     7
420
 16777215
370
    18
100
AcDbVertex
100
AcDb2dVertex
 10
341.8754285169617
 20
127.9436116216599
 30
0.0
  0
VERTEX
  5
591
330
58C
100
AcDbEntity
  8
\U+56FE\U+5C42 1
 62
     7
420
 16777215
370
    18
100
AcDbVertex
100
AcDb2dVertex
 10
341.6718233737835
 20
127.5367458448519
 30
0.0
  0
VERTEX
  5
592
330
58C
100
AcDbEntity
  8
\U+56FE\U+5C42 1
 62
     7
420
 16777215
370
    18
100
AcDbVertex
100
AcDb2dVertex
 10
341.8754285169617
 20
127.2325439135044
 30
0.0
  0
VERTEX
  5
593
330
58C
100
AcDbEntity
  8
\U+56FE\U+5C42 1
 62
     7
420
 16777215
370
    18
100
AcDbVertex
100
AcDb2dVertex
 10
342.2816052746726
 20
127.0289387703261
 30
0.0
  0
VERTEX
  5
594
330
58C
100
AcDbEntity
  8
\U+56FE\U+5C42 1
 62
     7
420
 16777215
370
    18
100
AcDbVertex
100
AcDb2dVertex
 10
342.5864962251173
 20
127.2325439135044
 30
0.0
  0
VERTEX
  5
595
330
58C
100
AcDbEntity
  8
\U+56FE\U+5C42 1
 62
     7
420
 16777215
370
    18
100
AcDbVertex
100
AcDb2dVertex
 10
342.789756858747
 20
127.5367458448519
 30
0.0
  0
SEQEND
  5
596
330
58C
100
AcDbEntity
  8
\U+56FE\U+5C42 1
370
    18
  0
POLYLINE
  5
597
330
1F
100
AcDbEntity
  8
\U+56FE\U+5C42 1
 62
     7
420
 16777215
370
    18
100
AcDb2dPolyline
 66
     1
 10
0.0
 20
0.0
 30
0.0
  0
VERTEX
  5
598
330
597
100
AcDbEntity
  8
\U+56FE\U+5C42 1
 62
     7
420
 16777215
370
    18
100
AcDbVertex
100
AcDb2dVertex
 10
342.0786891505915
 20
127.0289387703261
 30
0.0
  0
VERTEX
  5
599
330
597
100
AcDbEntity
  8
\U+56FE\U+5C42 1
 62
     7
420
 16777215
370
    18
100
AcDbVertex
100
AcDb2dVertex
 10
342.4848659083024
 20
127.1309135966895
 30
0.0
  0
VERTEX
  5
59A
330
597
100
AcDbEntity
  8
\U+56FE\U+5C42 1
 62
     7
420
 16777215
370
    18
100
AcDbVertex
100
AcDb2dVertex
 10
342.6881265419321
 20
127.4354600375856
 30
0.0
  0
VERTEX
  5
59B
330
597
100
AcDbEntity
  8
\U+56FE\U+5C42 1
 62
     7
420
 16777215
370
    18
100
AcDbVertex
100
AcDb2dVertex
 10
342.6881265419321
 20
127.8419813048451
 30
0.0
  0
VERTEX
  5
59C
330
597
100
AcDbEntity
  8
\U+56FE\U+5C42 1
 62
     7
420
 16777215
370
    18
100
AcDbVertex
100
AcDb2dVertex
 10
342.382891081939
 20
128.0452419384748
 30
0.0
  0
VERTEX
  5
59D
330
597
100
AcDbEntity
  8
\U+56FE\U+5C42 1
 62
     7
420
 16777215
370
    18
100
AcDbVertex
100
AcDb2dVertex
 10
341.9770588337766
 20
128.0452419384748
 30
0.0
  0
VERTEX
  5
59E
330
597
100
AcDbEntity
  8
\U+56FE\U+5C42 1
 62
     7
420
 16777215
370
    18
100
AcDbVertex
100
AcDb2dVertex
 10
341.7737982001469
 20
127.6383761616668
 30
0.0
  0
VERTEX
  5
59F
330
597
100
AcDbEntity
  8
\U+56FE\U+5C42 1
 62
     7
420
 16777215
370
    18
100
AcDbVertex
100
AcDb2dVertex
 10
341.7737982001469
 20
127.3338297207707
 30
0.0
  0
VERTEX
  5
5A0
330
597
100
AcDbEntity
  8
\U+56FE\U+5C42 1
 62
     7
420
 16777215
370
    18
100
AcDbVertex
100
AcDb2dVertex
 10
342.0786891505915
 20
127.0289387703261
 30
0.0
  0
SEQEND
  5
5A1
330
597
100
AcDbEntity
  8
\U+56FE\U+5C42 1
370
    18
  0
POLYLINE
  5
5A2
330
1F
100
AcDbEntity
  8
\U+56FE\U+5C42 1
 62
     7
420
 16777215
370
    18
100
AcDb2dPolyline
 66
     1
 10
0.0
 20
0.0
 30
0.0
  0
VERTEX
  5
5A3
330
5A2
100
AcDbEntity
  8
\U+56FE\U+5C42 1
 62
     7
420
 16777215
370
    18
100
AcDbVertex
100
AcDb2dVertex
 10
342.5864962251173
 20
127.4354600375856
 30
0.0
  0
VERTEX
  5
5A4
330
5A2
100
AcDbEntity
  8
\U+56FE\U+5C42 1
 62
     7
420
 16777215
370
    18
100
AcDbVertex
100
AcDb2dVertex
 10
342.4848659083024
 20
127.7400064784817
 30
0.0
  0
VERTEX
  5
5A5
330
5A2
100
AcDbEntity
  8
\U+56FE\U+5C42 1
 62
     7
420
 16777215
370
    18
100
AcDbVertex
100
AcDb2dVertex
 10
342.2816052746726
 20
127.9436116216599
 30
0.0
  0
VERTEX
  5
5A6
330
5A2
100
AcDbEntity
  8
\U+56FE\U+5C42 1
 62
     7
420
 16777215
370
    18
100
AcDbVertex
100
AcDb2dVertex
 10
341.9770588337766
 20
127.8419813048451
 30
0.0
  0
VERTEX
  5
5A7
330
5A2
100
AcDbEntity
  8
\U+56FE\U+5C42 1
 62
     7
420
 16777215
370
    18
100
AcDbVertex
100
AcDb2dVertex
 10
341.8754285169617
 20
127.5367458448519
 30
0.0
  0
SEQEND
  5
5A8
330
5A2
100
AcDbEntity
  8
\U+56FE\U+5C42 1
370
    18
  0
POLYLINE
  5
5A9
330
1F
100
AcDbEntity
  8
\U+56FE\U+5C42 1
 62
     7
420
 16777215
370
    18
100
AcDb2dPolyline
 66
     1
 10
0.0
 20
0.0
 30
0.0
  0
VERTEX
  5
5AA
330
5A9
100
AcDbEntity
  8
\U+56FE\U+5C42 1
 62
     7
420
 16777215
370
    18
100
AcDbVertex
100
AcDb2dVertex
 10
341.8754285169617
 20
127.2325439135044
 30
0.0
  0
VERTEX
  5
5AB
330
5A9
100
AcDbEntity
  8
\U+56FE\U+5C42 1
 62
     7
420
 16777215
370
    18
100
AcDbVertex
100
AcDb2dVertex
 10
341.8754285169617
 20
127.3338297207707
 30
0.0
  0
SEQEND
  5
5AC
330
5A9
100
AcDbEntity
  8
\U+56FE\U+5C42 1
370
    18
  0
POLYLINE
  5
5AD
330
1F
100
AcDbEntity
  8
\U+56FE\U+5C42 1
 62
     7
420
 16777215
370
    18
100
AcDb2dPolyline
 66
     1
 10
0.0
 20
0.0
 30
0.0
  0
VERTEX
  5
5AE
330
5AD
100
AcDbEntity
  8
\U+56FE\U+5C42 1
 62
     7
420
 16777215
370
    18
100
AcDbVertex
100
AcDb2dVertex
 10
342.382891081939
 20
127.2325439135044
 30
0.0
  0
VERTEX
  5
5AF
330
5AD
100
AcDbEntity
  8
\U+56FE\U+5C42 1
 62
     7
420
 16777215
370
    18
100
AcDbVertex
100
AcDb2dVertex
 10
342.382891081939
 20
127.1309135966895
 30
0.0
  0
SEQEND
  5
5B0
330
5AD
100
AcDbEntity
  8
\U+56FE\U+5C42 1
370
    18
  0
POLYLINE
  5
5B1
330
1F
100
AcDbEntity
  8
\U+56FE\U+5C42 1
 62
     7
420
 16777215
370
    18
100
AcDb2dPolyline
 66
     1
 10
0.0
 20
0.0
 30
0.0
  0
VERTEX
  5
5B2
330
5B1
100
AcDbEntity
  8
\U+56FE\U+5C42 1
 62
     7
420
 16777215
370
    18
100
AcDbVertex
100
AcDb2dVertex
 10
343.195933616458
 20
135.2585828654909
 30
0.0
  0
VERTEX
  5
5B3
330
5B1
100
AcDbEntity
  8
\U+56FE\U+5C42 1
 62
     7
420
 16777215
370
    18
100
AcDbVertex
100
AcDb2dVertex
 10
343.0946478091917
 20
135.6651041327504
 30
0.0
  0
VERTEX
  5
5B4
330
5B1
100
AcDbEntity
  8
\U+56FE\U+5C42 1
 62
     7
420
 16777215
370
    18
100
AcDbVertex
100
AcDb2dVertex
 10
342.6881265419321
 20
136.0716254000099
 30
0.0
  0
VERTEX
  5
5B5
330
5B1
100
AcDbEntity
  8
\U+56FE\U+5C42 1
 62
     7
420
 16777215
370
    18
100
AcDbVertex
100
AcDb2dVertex
 10
342.2816052746726
 20
136.1729112072762
 30
0.0
  0
VERTEX
  5
5B6
330
5B1
100
AcDbEntity
  8
\U+56FE\U+5C42 1
 62
     7
420
 16777215
370
    18
100
AcDbVertex
100
AcDb2dVertex
 10
341.7737982001469
 20
136.0716254000099
 30
0.0
  0
VERTEX
  5
5B7
330
5B1
100
AcDbEntity
  8
\U+56FE\U+5C42 1
 62
     7
420
 16777215
370
    18
100
AcDbVertex
100
AcDb2dVertex
 10
341.3672769328874
 20
135.6651041327504
 30
0.0
  0
VERTEX
  5
5B8
330
5B1
100
AcDbEntity
  8
\U+56FE\U+5C42 1
 62
     7
420
 16777215
370
    18
100
AcDbVertex
100
AcDb2dVertex
 10
341.265991125621
 20
135.2585828654909
 30
0.0
  0
VERTEX
  5
5B9
330
5B1
100
AcDbEntity
  8
\U+56FE\U+5C42 1
 62
     7
420
 16777215
370
    18
100
AcDbVertex
100
AcDb2dVertex
 10
341.3672769328874
 20
134.7507757909651
 30
0.0
  0
VERTEX
  5
5BA
330
5B1
100
AcDbEntity
  8
\U+56FE\U+5C42 1
 62
     7
420
 16777215
370
    18
100
AcDbVertex
100
AcDb2dVertex
 10
341.7737982001469
 20
134.3442545237056
 30
0.0
  0
VERTEX
  5
5BB
330
5B1
100
AcDbEntity
  8
\U+56FE\U+5C42 1
 62
     7
420
 16777215
370
    18
100
AcDbVertex
100
AcDb2dVertex
 10
342.2816052746726
 20
134.2426242068908
 30
0.0
  0
VERTEX
  5
5BC
330
5B1
100
AcDbEntity
  8
\U+56FE\U+5C42 1
 62
     7
420
 16777215
370
    18
100
AcDbVertex
100
AcDb2dVertex
 10
342.6881265419321
 20
134.3442545237056
 30
0.0
  0
VERTEX
  5
5BD
330
5B1
100
AcDbEntity
  8
\U+56FE\U+5C42 1
 62
     7
420
 16777215
370
    18
100
AcDbVertex
100
AcDb2dVertex
 10
343.0946478091917
 20
134.7507757909651
 30
0.0
  0
VERTEX
  5
5BE
330
5B1
100
AcDbEntity
  8
\U+56FE\U+5C42 1
 62
     7
420
 16777215
370
    18
100
AcDbVertex
100
AcDb2dVertex
 10
343.195933616458
 20
135.2585828654909
 30
0.0
  0
SEQEND
  5
5BF
330
5B1
100
AcDbEntity
  8
\U+56FE\U+5C42 1
370
    18
  0
POLYLINE
  5
5C0
330
1F
100
AcDbEntity
  8
\U+56FE\U+5C42 1
 62
     7
420
 16777215
370
    18
100
AcDb2dPolyline
 66
     1
 10
0.0
 20
0.0
 30
0.0
  0
VERTEX
  5
5C1
330
5C0
100
AcDbEntity
  8
\U+56FE\U+5C42 1
 62
     7
420
 16777215
370
    18
100
AcDbVertex
100
AcDb2dVertex
 10
343.0946478091917
 20
135.2585828654909
 30
0.0
  0
VERTEX
  5
5C2
330
5C0
100
AcDbEntity
  8
\U+56FE\U+5C42 1
 62
     7
420
 16777215
370
    18
100
AcDbVertex
100
AcDb2dVertex
 10
342.9926729828283
 20
135.6651041327504
 30
0.0
  0
VERTEX
  5
5C3
330
5C0
100
AcDbEntity
  8
\U+56FE\U+5C42 1
 62
     7
420
 16777215
370
    18
100
AcDbVertex
100
AcDb2dVertex
 10
342.6881265419321
 20
135.969995083195
 30
0.0
  0
VERTEX
  5
5C4
330
5C0
100
AcDbEntity
  8
\U+56FE\U+5C42 1
 62
     7
420
 16777215
370
    18
100
AcDbVertex
100
AcDb2dVertex
 10
342.2816052746726
 20
136.0716254000099
 30
0.0
  0
VERTEX
  5
5C5
330
5C0
100
AcDbEntity
  8
\U+56FE\U+5C42 1
 62
     7
420
 16777215
370
    18
100
AcDbVertex
100
AcDb2dVertex
 10
341.7737982001469
 20
135.969995083195
 30
0.0
  0
VERTEX
  5
5C6
330
5C0
100
AcDbEntity
  8
\U+56FE\U+5C42 1
 62
     7
420
 16777215
370
    18
100
AcDbVertex
100
AcDb2dVertex
 10
341.4685627401537
 20
135.6651041327504
 30
0.0
  0
VERTEX
  5
5C7
330
5C0
100
AcDbEntity
  8
\U+56FE\U+5C42 1
 62
     7
420
 16777215
370
    18
100
AcDbVertex
100
AcDb2dVertex
 10
341.3672769328874
 20
135.2585828654909
 30
0.0
  0
VERTEX
  5
5C8
330
5C0
100
AcDbEntity
  8
\U+56FE\U+5C42 1
 62
     7
420
 16777215
370
    18
100
AcDbVertex
100
AcDb2dVertex
 10
341.4685627401537
 20
134.7507757909651
 30
0.0
  0
VERTEX
  5
5C9
330
5C0
100
AcDbEntity
  8
\U+56FE\U+5C42 1
 62
     7
420
 16777215
370
    18
100
AcDbVertex
100
AcDb2dVertex
 10
341.7737982001469
 20
134.445540330972
 30
0.0
  0
VERTEX
  5
5CA
330
5C0
100
AcDbEntity
  8
\U+56FE\U+5C42 1
 62
     7
420
 16777215
370
    18
100
AcDbVertex
100
AcDb2dVertex
 10
342.2816052746726
 20
134.3442545237056
 30
0.0
  0
VERTEX
  5
5CB
330
5C0
100
AcDbEntity
  8
\U+56FE\U+5C42 1
 62
     7
420
 16777215
370
    18
100
AcDbVertex
100
AcDb2dVertex
 10
342.6881265419321
 20
134.445540330972
 30
0.0
  0
VERTEX
  5
5CC
330
5C0
100
AcDbEntity
  8
\U+56FE\U+5C42 1
 62
     7
420
 16777215
370
    18
100
AcDbVertex
100
AcDb2dVertex
 10
342.9926729828283
 20
134.7507757909651
 30
0.0
  0
VERTEX
  5
5CD
330
5C0
100
AcDbEntity
  8
\U+56FE\U+5C42 1
 62
     7
420
 16777215
370
    18
100
AcDbVertex
100
AcDb2dVertex
 10
343.0946478091917
 20
135.2585828654909
 30
0.0
  0
VERTEX
  5
5CE
330
5C0
100
AcDbEntity
  8
\U+56FE\U+5C42 1
 62
     7
420
 16777215
370
    18
100
AcDbVertex
100
AcDb2dVertex
 10
342.789756858747
 20
135.7663899400168
 30
0.0
  0
VERTEX
  5
5CF
330
5C0
100
AcDbEntity
  8
\U+56FE\U+5C42 1
 62
     7
420
 16777215
370
    18
100
AcDbVertex
100
AcDb2dVertex
 10
342.2816052746726
 20
136.0716254000099
 30
0.0
  0
VERTEX
  5
5D0
330
5C0
100
AcDbEntity
  8
\U+56FE\U+5C42 1
 62
     7
420
 16777215
370
    18
100
AcDbVertex
100
AcDb2dVertex
 10
341.6718233737835
 20
135.7663899400168
 30
0.0
  0
VERTEX
  5
5D1
330
5C0
100
AcDbEntity
  8
\U+56FE\U+5C42 1
 62
     7
420
 16777215
370
    18
100
AcDbVertex
100
AcDb2dVertex
 10
341.3672769328874
 20
135.2585828654909
 30
0.0
  0
VERTEX
  5
5D2
330
5C0
100
AcDbEntity
  8
\U+56FE\U+5C42 1
 62
     7
420
 16777215
370
    18
100
AcDbVertex
100
AcDb2dVertex
 10
341.6718233737835
 20
134.6491454741502
 30
0.0
  0
VERTEX
  5
5D3
330
5C0
100
AcDbEntity
  8
\U+56FE\U+5C42 1
 62
     7
420
 16777215
370
    18
100
AcDbVertex
100
AcDb2dVertex
 10
342.2816052746726
 20
134.3442545237056
 30
0.0
  0
VERTEX
  5
5D4
330
5C0
100
AcDbEntity
  8
\U+56FE\U+5C42 1
 62
     7
420
 16777215
370
    18
100
AcDbVertex
100
AcDb2dVertex
 10
342.789756858747
 20
134.6491454741502
 30
0.0
  0
VERTEX
  5
5D5
330
5C0
100
AcDbEntity
  8
\U+56FE\U+5C42 1
 62
     7
420
 16777215
370
    18
100
AcDbVertex
100
AcDb2dVertex
 10
343.0946478091917
 20
135.2585828654909
 30
0.0
  0
SEQEND
  5
5D6
330
5C0
100
AcDbEntity
  8
\U+56FE\U+5C42 1
370
    18
  0
POLYLINE
  5
5D7
330
1F
100
AcDbEntity
  8
\U+56FE\U+5C42 1
 62
     7
420
 16777215
370
    18
100
AcDb2dPolyline
 66
     1
 10
0.0
 20
0.0
 30
0.0
  0
VERTEX
  5
5D8
330
5D7
100
AcDbEntity
  8
\U+56FE\U+5C42 1
 62
     7
420
 16777215
370
    18
100
AcDbVertex
100
AcDb2dVertex
 10
342.789756858747
 20
135.2585828654909
 30
0.0
  0
VERTEX
  5
5D9
330
5D7
100
AcDbEntity
  8
\U+56FE\U+5C42 1
 62
     7
420
 16777215
370
    18
100
AcDbVertex
100
AcDb2dVertex
 10
342.5864962251173
 20
135.5634738159355
 30
0.0
  0
VERTEX
  5
5DA
330
5D7
100
AcDbEntity
  8
\U+56FE\U+5C42 1
 62
     7
420
 16777215
370
    18
100
AcDbVertex
100
AcDb2dVertex
 10
342.2816052746726
 20
135.7663899400168
 30
0.0
  0
VERTEX
  5
5DB
330
5D7
100
AcDbEntity
  8
\U+56FE\U+5C42 1
 62
     7
420
 16777215
370
    18
100
AcDbVertex
100
AcDb2dVertex
 10
341.8754285169617
 20
135.5634738159355
 30
0.0
  0
VERTEX
  5
5DC
330
5D7
100
AcDbEntity
  8
\U+56FE\U+5C42 1
 62
     7
420
 16777215
370
    18
100
AcDbVertex
100
AcDb2dVertex
 10
341.6718233737835
 20
135.2585828654909
 30
0.0
  0
VERTEX
  5
5DD
330
5D7
100
AcDbEntity
  8
\U+56FE\U+5C42 1
 62
     7
420
 16777215
370
    18
100
AcDbVertex
100
AcDb2dVertex
 10
341.8754285169617
 20
134.8520615982314
 30
0.0
  0
VERTEX
  5
5DE
330
5D7
100
AcDbEntity
  8
\U+56FE\U+5C42 1
 62
     7
420
 16777215
370
    18
100
AcDbVertex
100
AcDb2dVertex
 10
342.2816052746726
 20
134.6491454741502
 30
0.0
  0
VERTEX
  5
5DF
330
5D7
100
AcDbEntity
  8
\U+56FE\U+5C42 1
 62
     7
420
 16777215
370
    18
100
AcDbVertex
100
AcDb2dVertex
 10
342.5864962251173
 20
134.8520615982314
 30
0.0
  0
VERTEX
  5
5E0
330
5D7
100
AcDbEntity
  8
\U+56FE\U+5C42 1
 62
     7
420
 16777215
370
    18
100
AcDbVertex
100
AcDb2dVertex
 10
342.789756858747
 20
135.2585828654909
 30
0.0
  0
VERTEX
  5
5E1
330
5D7
100
AcDbEntity
  8
\U+56FE\U+5C42 1
 62
     7
420
 16777215
370
    18
100
AcDbVertex
100
AcDb2dVertex
 10
342.5864962251173
 20
135.5634738159355
 30
0.0
  0
VERTEX
  5
5E2
330
5D7
100
AcDbEntity
  8
\U+56FE\U+5C42 1
 62
     7
420
 16777215
370
    18
100
AcDbVertex
100
AcDb2dVertex
 10
342.2816052746726
 20
135.7663899400168
 30
0.0
  0
VERTEX
  5
5E3
330
5D7
100
AcDbEntity
  8
\U+56FE\U+5C42 1
 62
     7
420
 16777215
370
    18
100
AcDbVertex
100
AcDb2dVertex
 10
341.8754285169617
 20
135.5634738159355
 30
0.0
  0
VERTEX
  5
5E4
330
5D7
100
AcDbEntity
  8
\U+56FE\U+5C42 1
 62
     7
420
 16777215
370
    18
100
AcDbVertex
100
AcDb2dVertex
 10
341.7737982001469
 20
135.2585828654909
 30
0.0
  0
VERTEX
  5
5E5
330
5D7
100
AcDbEntity
  8
\U+56FE\U+5C42 1
 62
     7
420
 16777215
370
    18
100
AcDbVertex
100
AcDb2dVertex
 10
341.8754285169617
 20
134.8520615982314
 30
0.0
  0
VERTEX
  5
5E6
330
5D7
100
AcDbEntity
  8
\U+56FE\U+5C42 1
 62
     7
420
 16777215
370
    18
100
AcDbVertex
100
AcDb2dVertex
 10
342.2816052746726
 20
134.7507757909651
 30
0.0
  0
VERTEX
  5
5E7
330
5D7
100
AcDbEntity
  8
\U+56FE\U+5C42 1
 62
     7
420
 16777215
370
    18
100
AcDbVertex
100
AcDb2dVertex
 10
342.5864962251173
 20
134.8520615982314
 30
0.0
  0
VERTEX
  5
5E8
330
5D7
100
AcDbEntity
  8
\U+56FE\U+5C42 1
 62
     7
420
 16777215
370
    18
100
AcDbVertex
100
AcDb2dVertex
 10
342.789756858747
 20
135.2585828654909
 30
0.0
  0
SEQEND
  5
5E9
330
5D7
100
AcDbEntity
  8
\U+56FE\U+5C42 1
370
    18
  0
POLYLINE
  5
5EA
330
1F
100
AcDbEntity
  8
\U+56FE\U+5C42 1
 62
     7
420
 16777215
370
    18
100
AcDb2dPolyline
 66
     1
 10
0.0
 20
0.0
 30
0.0
  0
VERTEX
  5
5EB
330
5EA
100
AcDbEntity
  8
\U+56FE\U+5C42 1
 62
     7
420
 16777215
370
    18
100
AcDbVertex
100
AcDb2dVertex
 10
341.8754285169617
 20
135.2585828654909
 30
0.0
  0
VERTEX
  5
5EC
330
5EA
100
AcDbEntity
  8
\U+56FE\U+5C42 1
 62
     7
420
 16777215
370
    18
100
AcDbVertex
100
AcDb2dVertex
 10
341.9770588337766
 20
134.9536919150463
 30
0.0
  0
VERTEX
  5
5ED
330
5EA
100
AcDbEntity
  8
\U+56FE\U+5C42 1
 62
     7
420
 16777215
370
    18
100
AcDbVertex
100
AcDb2dVertex
 10
342.2816052746726
 20
134.8520615982314
 30
0.0
  0
VERTEX
  5
5EE
330
5EA
100
AcDbEntity
  8
\U+56FE\U+5C42 1
 62
     7
420
 16777215
370
    18
100
AcDbVertex
100
AcDb2dVertex
 10
342.4848659083024
 20
134.9536919150463
 30
0.0
  0
VERTEX
  5
5EF
330
5EA
100
AcDbEntity
  8
\U+56FE\U+5C42 1
 62
     7
420
 16777215
370
    18
100
AcDbVertex
100
AcDb2dVertex
 10
342.5864962251173
 20
135.2585828654909
 30
0.0
  0
VERTEX
  5
5F0
330
5EA
100
AcDbEntity
  8
\U+56FE\U+5C42 1
 62
     7
420
 16777215
370
    18
100
AcDbVertex
100
AcDb2dVertex
 10
342.4848659083024
 20
135.4618434991206
 30
0.0
  0
SEQEND
  5
5F1
330
5EA
100
AcDbEntity
  8
\U+56FE\U+5C42 1
370
    18
  0
POLYLINE
  5
5F2
330
1F
100
AcDbEntity
  8
\U+56FE\U+5C42 1
 62
     7
420
 16777215
370
    18
100
AcDb2dPolyline
 66
     1
 10
0.0
 20
0.0
 30
0.0
  0
VERTEX
  5
5F3
330
5F2
100
AcDbEntity
  8
\U+56FE\U+5C42 1
 62
     7
420
 16777215
370
    18
100
AcDbVertex
100
AcDb2dVertex
 10
342.382891081939
 20
135.6651041327504
 30
0.0
  0
VERTEX
  5
5F4
330
5F2
100
AcDbEntity
  8
\U+56FE\U+5C42 1
 62
     7
420
 16777215
370
    18
100
AcDbVertex
100
AcDb2dVertex
 10
342.382891081939
 20
135.4618434991206
 30
0.0
  0
SEQEND
  5
5F5
330
5F2
100
AcDbEntity
  8
\U+56FE\U+5C42 1
370
    18
  0
POLYLINE
  5
5F6
330
1F
100
AcDbEntity
  8
\U+56FE\U+5C42 1
 62
     7
420
 16777215
370
    18
100
AcDb2dPolyline
 66
     1
 10
0.0
 20
0.0
 30
0.0
  0
VERTEX
  5
5F7
330
5F6
100
AcDbEntity
  8
\U+56FE\U+5C42 1
 62
     7
420
 16777215
370
    18
100
AcDbVertex
100
AcDb2dVertex
 10
341.8754285169617
 20
135.4618434991206
 30
0.0
  0
VERTEX
  5
5F8
330
5F6
100
AcDbEntity
  8
\U+56FE\U+5C42 1
 62
     7
420
 16777215
370
    18
100
AcDbVertex
100
AcDb2dVertex
 10
341.8754285169617
 20
135.5634738159355
 30
0.0
  0
SEQEND
  5
5F9
330
5F6
100
AcDbEntity
  8
\U+56FE\U+5C42 1
370
    18
  0
POLYLINE
  5
5FA
330
1F
100
AcDbEntity
  8
\U+56FE\U+5C42 1
 62
     7
420
 16777215
370
    18
100
AcDb2dPolyline
 66
     1
 10
0.0
 20
0.0
 30
0.0
  0
VERTEX
  5
5FB
330
5FA
100
AcDbEntity
  8
\U+56FE\U+5C42 1
 62
     7
420
 16777215
370
    18
100
AcDbVertex
100
AcDb2dVertex
 10
338.7259222243463
 20
129.3657470379711
 30
0.0
  0
VERTEX
  5
5FC
330
5FA
100
AcDbEntity
  8
\U+56FE\U+5C42 1
 62
     7
420
 16777215
370
    18
100
AcDbVertex
100
AcDb2dVertex
 10
338.6242919075314
 20
129.3657470379711
 30
0.0
  0
VERTEX
  5
5FD
330
5FA
100
AcDbEntity
  8
\U+56FE\U+5C42 1
 62
     7
420
 16777215
370
    18
100
AcDbVertex
100
AcDb2dVertex
 10
338.6242919075314
 20
129.2641167211562
 30
0.0
  0
SEQEND
  5
5FE
330
5FA
100
AcDbEntity
  8
\U+56FE\U+5C42 1
370
    18
  0
POLYLINE
  5
5FF
330
1F
100
AcDbEntity
  8
\U+56FE\U+5C42 1
 62
     7
420
 16777215
370
    18
100
AcDb2dPolyline
 66
     1
 10
0.0
 20
0.0
 30
0.0
  0
VERTEX
  5
600
330
5FF
100
AcDbEntity
  8
\U+56FE\U+5C42 1
 62
     7
420
 16777215
370
    18
100
AcDbVertex
100
AcDb2dVertex
 10
338.7259222243463
 20
129.3657470379711
 30
0.0
  0
VERTEX
  5
601
330
5FF
100
AcDbEntity
  8
\U+56FE\U+5C42 1
 62
     7
420
 16777215
370
    18
100
AcDbVertex
100
AcDb2dVertex
 10
338.6242919075314
 20
129.3657470379711
 30
0.0
  0
VERTEX
  5
602
330
5FF
100
AcDbEntity
  8
\U+56FE\U+5C42 1
 62
     7
420
 16777215
370
    18
100
AcDbVertex
100
AcDb2dVertex
 10
338.6242919075314
 20
129.2641167211562
 30
0.0
  0
SEQEND
  5
603
330
5FF
100
AcDbEntity
  8
\U+56FE\U+5C42 1
370
    18
  0
POLYLINE
  5
604
330
1F
100
AcDbEntity
  8
\U+56FE\U+5C42 1
 62
     7
420
 16777215
370
    18
100
AcDb2dPolyline
 66
     1
 10
0.0
 20
0.0
 30
0.0
  0
VERTEX
  5
605
330
604
100
AcDbEntity
  8
\U+56FE\U+5C42 1
 62
     7
420
 16777215
370
    18
100
AcDbVertex
100
AcDb2dVertex
 10
339.4369899325019
 20
128.6546793298155
 30
0.0
  0
VERTEX
  5
606
330
604
100
AcDbEntity
  8
\U+56FE\U+5C42 1
 62
     7
420
 16777215
370
    18
100
AcDbVertex
100
AcDb2dVertex
 10
339.5386202493168
 20
128.6546793298155
 30
0.0
  0
VERTEX
  5
607
330
604
100
AcDbEntity
  8
\U+56FE\U+5C42 1
 62
     7
420
 16777215
370
    18
100
AcDbVertex
100
AcDb2dVertex
 10
339.5386202493168
 20
128.7563096466304
 30
0.0
  0
VERTEX
  5
608
330
604
100
AcDbEntity
  8
\U+56FE\U+5C42 1
 62
     7
420
 16777215
370
    18
100
AcDbVertex
100
AcDb2dVertex
 10
339.5386202493168
 20
128.8579399634452
 30
0.0
  0
SEQEND
  5
609
330
604
100
AcDbEntity
  8
\U+56FE\U+5C42 1
370
    18
  0
POLYLINE
  5
60A
330
1F
100
AcDbEntity
  8
\U+56FE\U+5C42 1
 62
     7
420
 16777215
370
    18
100
AcDb2dPolyline
 66
     1
 10
0.0
 20
0.0
 30
0.0
  0
VERTEX
  5
60B
330
60A
100
AcDbEntity
  8
\U+56FE\U+5C42 1
 62
     7
420
 16777215
370
    18
100
AcDbVertex
100
AcDb2dVertex
 10
339.5386202493168
 20
128.6546793298155
 30
0.0
  0
VERTEX
  5
60C
330
60A
100
AcDbEntity
  8
\U+56FE\U+5C42 1
 62
     7
420
 16777215
370
    18
100
AcDbVertex
100
AcDb2dVertex
 10
339.5386202493168
 20
128.7563096466304
 30
0.0
  0
VERTEX
  5
60D
330
60A
100
AcDbEntity
  8
\U+56FE\U+5C42 1
 62
     7
420
 16777215
370
    18
100
AcDbVertex
100
AcDb2dVertex
 10
339.6399060565831
 20
128.7563096466304
 30
0.0
  0
VERTEX
  5
60E
330
60A
100
AcDbEntity
  8
\U+56FE\U+5C42 1
 62
     7
420
 16777215
370
    18
100
AcDbVertex
100
AcDb2dVertex
 10
339.5386202493168
 20
128.8579399634452
 30
0.0
  0
SEQEND
  5
60F
330
60A
100
AcDbEntity
  8
\U+56FE\U+5C42 1
370
    18
  0
POLYLINE
  5
610
330
1F
100
AcDbEntity
  8
\U+56FE\U+5C42 1
 62
     7
420
 16777215
370
    18
100
AcDb2dPolyline
 66
     1
 10
0.0
 20
0.0
 30
0.0
  0
VERTEX
  5
611
330
610
100
AcDbEntity
  8
\U+56FE\U+5C42 1
 62
     7
420
 16777215
370
    18
100
AcDbVertex
100
AcDb2dVertex
 10
338.1157958139086
 20
129.3657470379711
 30
0.0
  0
VERTEX
  5
612
330
610
100
AcDbEntity
  8
\U+56FE\U+5C42 1
 62
     7
420
 16777215
370
    18
100
AcDbVertex
100
AcDb2dVertex
 10
338.1157958139086
 20
129.467377354786
 30
0.0
  0
VERTEX
  5
613
330
610
100
AcDbEntity
  8
\U+56FE\U+5C42 1
 62
     7
420
 16777215
370
    18
100
AcDbVertex
100
AcDb2dVertex
 10
338.0145100066422
 20
129.467377354786
 30
0.0
  0
VERTEX
  5
614
330
610
100
AcDbEntity
  8
\U+56FE\U+5C42 1
 62
     7
420
 16777215
370
    18
100
AcDbVertex
100
AcDb2dVertex
 10
338.0145100066422
 20
129.3657470379711
 30
0.0
  0
SEQEND
  5
615
330
610
100
AcDbEntity
  8
\U+56FE\U+5C42 1
370
    18
  0
POLYLINE
  5
616
330
1F
100
AcDbEntity
  8
\U+56FE\U+5C42 1
 62
     7
420
 16777215
370
    18
100
AcDb2dPolyline
 66
     1
 10
0.0
 20
0.0
 30
0.0
  0
VERTEX
  5
617
330
616
100
AcDbEntity
  8
\U+56FE\U+5C42 1
 62
     7
420
 16777215
370
    18
100
AcDbVertex
100
AcDb2dVertex
 10
338.1157958139086
 20
129.467377354786
 30
0.0
  0
VERTEX
  5
618
330
616
100
AcDbEntity
  8
\U+56FE\U+5C42 1
 62
     7
420
 16777215
370
    18
100
AcDbVertex
100
AcDb2dVertex
 10
338.0145100066422
 20
129.467377354786
 30
0.0
  0
VERTEX
  5
619
330
616
100
AcDbEntity
  8
\U+56FE\U+5C42 1
 62
     7
420
 16777215
370
    18
100
AcDbVertex
100
AcDb2dVertex
 10
338.0145100066422
 20
129.3657470379711
 30
0.0
  0
SEQEND
  5
61A
330
616
100
AcDbEntity
  8
\U+56FE\U+5C42 1
370
    18
  0
POLYLINE
  5
61B
330
1F
100
AcDbEntity
  8
\U+56FE\U+5C42 1
 62
     7
420
 16777215
370
    18
100
AcDb2dPolyline
 66
     1
 10
0.0
 20
0.0
 30
0.0
  0
VERTEX
  5
61C
330
61B
100
AcDbEntity
  8
\U+56FE\U+5C42 1
 62
     7
420
 16777215
370
    18
100
AcDbVertex
100
AcDb2dVertex
 10
338.0145100066422
 20
128.7563096466304
 30
0.0
  0
VERTEX
  5
61D
330
61B
100
AcDbEntity
  8
\U+56FE\U+5C42 1
 62
     7
420
 16777215
370
    18
100
AcDbVertex
100
AcDb2dVertex
 10
338.0145100066422
 20
128.6546793298155
 30
0.0
  0
VERTEX
  5
61E
330
61B
100
AcDbEntity
  8
\U+56FE\U+5C42 1
 62
     7
420
 16777215
370
    18
100
AcDbVertex
100
AcDb2dVertex
 10
338.1157958139086
 20
128.6546793298155
 30
0.0
  0
SEQEND
  5
61F
330
61B
100
AcDbEntity
  8
\U+56FE\U+5C42 1
370
    18
  0
POLYLINE
  5
620
330
1F
100
AcDbEntity
  8
\U+56FE\U+5C42 1
 62
     7
420
 16777215
370
    18
100
AcDb2dPolyline
 66
     1
 10
0.0
 20
0.0
 30
0.0
  0
VERTEX
  5
621
330
620
100
AcDbEntity
  8
\U+56FE\U+5C42 1
 62
     7
420
 16777215
370
    18
100
AcDbVertex
100
AcDb2dVertex
 10
338.0145100066422
 20
128.7563096466304
 30
0.0
  0
VERTEX
  5
622
330
620
100
AcDbEntity
  8
\U+56FE\U+5C42 1
 62
     7
420
 16777215
370
    18
100
AcDbVertex
100
AcDb2dVertex
 10
338.0145100066422
 20
128.6546793298155
 30
0.0
  0
VERTEX
  5
623
330
620
100
AcDbEntity
  8
\U+56FE\U+5C42 1
 62
     7
420
 16777215
370
    18
100
AcDbVertex
100
AcDb2dVertex
 10
338.1157958139086
 20
128.6546793298155
 30
0.0
  0
SEQEND
  5
624
330
620
100
AcDbEntity
  8
\U+56FE\U+5C42 1
370
    18
  0
POLYLINE
  5
625
330
1F
100
AcDbEntity
  8
\U+56FE\U+5C42 1
 62
     7
420
 16777215
370
    18
100
AcDb2dPolyline
 66
     1
 10
0.0
 20
0.0
 30
0.0
  0
VERTEX
  5
626
330
625
100
AcDbEntity
  8
\U+56FE\U+5C42 1
 62
     7
420
 16777215
370
    18
100
AcDbVertex
100
AcDb2dVertex
 10
338.8272080316127
 20
128.5530490130006
 30
0.0
  0
VERTEX
  5
627
330
625
100
AcDbEntity
  8
\U+56FE\U+5C42 1
 62
     7
420
 16777215
370
    18
100
AcDbVertex
100
AcDb2dVertex
 10
338.928493838879
 20
128.5530490130006
 30
0.0
  0
VERTEX
  5
628
330
625
100
AcDbEntity
  8
\U+56FE\U+5C42 1
 62
     7
420
 16777215
370
    18
100
AcDbVertex
100
AcDb2dVertex
 10
338.928493838879
 20
128.6546793298155
 30
0.0
  0
SEQEND
  5
629
330
625
100
AcDbEntity
  8
\U+56FE\U+5C42 1
370
    18
  0
POLYLINE
  5
62A
330
1F
100
AcDbEntity
  8
\U+56FE\U+5C42 1
 62
     7
420
 16777215
370
    18
100
AcDb2dPolyline
 66
     1
 10
0.0
 20
0.0
 30
0.0
  0
VERTEX
  5
62B
330
62A
100
AcDbEntity
  8
\U+56FE\U+5C42 1
 62
     7
420
 16777215
370
    18
100
AcDbVertex
100
AcDb2dVertex
 10
338.8272080316127
 20
128.5530490130006
 30
0.0
  0
VERTEX
  5
62C
330
62A
100
AcDbEntity
  8
\U+56FE\U+5C42 1
 62
     7
420
 16777215
370
    18
100
AcDbVertex
100
AcDb2dVertex
 10
338.928493838879
 20
128.5530490130006
 30
0.0
  0
VERTEX
  5
62D
330
62A
100
AcDbEntity
  8
\U+56FE\U+5C42 1
 62
     7
420
 16777215
370
    18
100
AcDbVertex
100
AcDb2dVertex
 10
338.928493838879
 20
128.6546793298155
 30
0.0
  0
SEQEND
  5
62E
330
62A
100
AcDbEntity
  8
\U+56FE\U+5C42 1
370
    18
  0
POLYLINE
  5
62F
330
1F
100
AcDbEntity
  8
\U+56FE\U+5C42 1
 62
     7
420
 16777215
370
    35
100
AcDb2dPolyline
 66
     1
 10
0.0
 20
0.0
 30
0.0
  0
VERTEX
  5
630
330
62F
100
AcDbEntity
  8
\U+56FE\U+5C42 1
 62
     7
420
 16777215
370
    35
100
AcDbVertex
100
AcDb2dVertex
 10
342.2309623710395
 20
128.8579399634452
 30
0.0
  0
VERTEX
  5
631
330
62F
100
AcDbEntity
  8
\U+56FE\U+5C42 1
 62
     7
420
 16777215
370
    35
100
AcDbVertex
100
AcDb2dVertex
 10
356.455072610539
 20
128.8579399634452
 30
0.0
  0
SEQEND
  5
632
330
62F
100
AcDbEntity
  8
\U+56FE\U+5C42 1
370
    35
  0
POLYLINE
  5
633
330
1F
100
AcDbEntity
  8
\U+56FE\U+5C42 1
 62
     7
420
 16777215
370
    35
100
AcDb2dPolyline
 66
     1
 10
0.0
 20
0.0
 30
0.0
  0
VERTEX
  5
634
330
633
100
AcDbEntity
  8
\U+56FE\U+5C42 1
 62
     7
420
 16777215
370
    35
100
AcDbVertex
100
AcDb2dVertex
 10
341.8754285169617
 20
134.0565890506873
 30
0.0
  0
VERTEX
  5
635
330
633
100
AcDbEntity
  8
\U+56FE\U+5C42 1
 62
     7
420
 16777215
370
    35
100
AcDbVertex
100
AcDb2dVertex
 10
356.0995387564612
 20
134.0565890506873
 30
0.0
  0
SEQEND
  5
636
330
633
100
AcDbEntity
  8
\U+56FE\U+5C42 1
370
    35
  0
POLYLINE
  5
637
330
1F
100
AcDbEntity
  8
\U+56FE\U+5C42 1
 62
     7
420
 16777215
370
    25
100
AcDb2dPolyline
 66
     1
 10
0.0
 20
0.0
 30
0.0
  0
VERTEX
  5
638
330
637
100
AcDbEntity
  8
\U+56FE\U+5C42 1
 62
     7
420
 16777215
370
    25
100
AcDbVertex
100
AcDb2dVertex
 10
355.4732203972428
 20
135.0449869454054
 30
0.0
  0
VERTEX
  5
639
330
637
100
AcDbEntity
  8
\U+56FE\U+5C42 1
 62
     7
420
 16777215
370
    25
100
AcDbVertex
100
AcDb2dVertex
 10
355.4732203972428
 20
124.4182454116038
 30
0.0
  0
VERTEX
  5
63A
330
637
100
AcDbEntity
  8
\U+56FE\U+5C42 1
 62
     7
420
 16777215
370
    25
100
AcDbVertex
100
AcDb2dVertex
 10
355.4732203972428
 20
141.9927110105088
 30
0.0
  0
SEQEND
  5
63B
330
637
100
AcDbEntity
  8
\U+56FE\U+5C42 1
370
    25
  0
POLYLINE
  5
63C
330
1F
100
AcDbEntity
  8
\U+56FE\U+5C42 1
370
     0
100
AcDb2dPolyline
 66
     1
 10
0.0
 20
0.0
 30
0.0
  0
VERTEX
  5
63D
330
63C
100
AcDbEntity
  8
\U+56FE\U+5C42 1
370
     0
100
AcDbVertex
100
AcDb2dVertex
 10
355.5242078104245
 20
128.8069525502635
 30
0.0
  0
VERTEX
  5
63E
330
63C
100
AcDbEntity
  8
\U+56FE\U+5C42 1
370
     0
100
AcDbVertex
100
AcDb2dVertex
 10
355.9303845681355
 20
125.8603623817294
 30
0.0
  0
VERTEX
  5
63F
330
63C
100
AcDbEntity
  8
\U+56FE\U+5C42 1
370
     0
100
AcDbVertex
100
AcDb2dVertex
 10
355.0160562263501
 20
125.8603623817294
 30
0.0
  0
VERTEX
  5
640
330
63C
100
AcDbEntity
  8
\U+56FE\U+5C42 1
370
     0
100
AcDbVertex
100
AcDb2dVertex
 10
355.5242078104245
 20
128.8069525502635
 30
0.0
  0
SEQEND
  5
641
330
63C
100
AcDbEntity
  8
\U+56FE\U+5C42 1
370
     0
  0
HATCH
  5
642
330
1F
100
AcDbEntity
  8
\U+56FE\U+5C42 1
 62
     7
420
 16777215
100
AcDbHatch
 10
0.0
 20
0.0
 30
0.0
210
0.0
220
0.0
230
1.0
  2
SOLID
 70
     1
 71
     0
 91
        1
 92
        1
 93
        3
 72
     1
 10
355.5242078104245
 20
128.8069525502635
 11
355.9303845681355
 21
125.8603623817294
 72
     1
 10
355.9303845681355
 20
125.8603623817294
 11
355.0160562263501
 21
125.8603623817294
 72
     1
 10
355.0160562263501
 20
125.8603623817294
 11
355.5242078104245
 21
128.8069525502635
 97
        0
 75
     0
 76
     1
 98
        0
  0
POLYLINE
  5
643
330
1F
100
AcDbEntity
  8
\U+56FE\U+5C42 1
370
     0
100
AcDb2dPolyline
 66
     1
 10
0.0
 20
0.0
 30
0.0
  0
VERTEX
  5
644
330
643
100
AcDbEntity
  8
\U+56FE\U+5C42 1
370
     0
100
AcDbVertex
100
AcDb2dVertex
 10
355.5242078104245
 20
133.9043158302392
 30
0.0
  0
VERTEX
  5
645
330
643
100
AcDbEntity
  8
\U+56FE\U+5C42 1
370
     0
100
AcDbVertex
100
AcDb2dVertex
 10
355.0160562263501
 20
136.8505614892249
 30
0.0
  0
VERTEX
  5
646
330
643
100
AcDbEntity
  8
\U+56FE\U+5C42 1
370
     0
100
AcDbVertex
100
AcDb2dVertex
 10
355.9303845681355
 20
136.8505614892249
 30
0.0
  0
VERTEX
  5
647
330
643
100
AcDbEntity
  8
\U+56FE\U+5C42 1
370
     0
100
AcDbVertex
100
AcDb2dVertex
 10
355.5242078104245
 20
133.9043158302392
 30
0.0
  0
SEQEND
  5
648
330
643
100
AcDbEntity
  8
\U+56FE\U+5C42 1
370
     0
  0
HATCH
  5
649
330
1F
100
AcDbEntity
  8
\U+56FE\U+5C42 1
 62
     7
420
 16777215
100
AcDbHatch
 10
0.0
 20
0.0
 30
0.0
210
0.0
220
0.0
230
1.0
  2
SOLID
 70
     1
 71
     0
 91
        1
 92
        1
 93
        3
 72
     1
 10
355.5242078104245
 20
133.9043158302392
 11
355.0160562263501
 21
136.8505614892249
 72
     1
 10
355.0160562263501
 20
136.8505614892249
 11
355.9303845681355
 21
136.8505614892249
 72
     1
 10
355.9303845681355
 20
136.8505614892249
 11
355.5242078104245
 21
133.9043158302392
 97
        0
 75
     0
 76
     1
 98
        0
  0
MTEXT
  5
64A
330
1F
100
AcDbEntity
  8
\U+56FE\U+5C42 1
 62
     7
420
 16777215
100
AcDbMText
 10
350.1577825730508
 20
143.1020317567592
 30
0.0
 40
3.454399907626052
 41
0.0
 71
     7
 72
     1
  1
\fSimSun|b0|i0|c0|p34;\W1;12.7
 73
     1
 44
1.0
  0
ENDSEC
  0
SECTION
  2
OBJECTS
  0
DICTIONARY
  5
C
330
0
100
AcDbDictionary
281
     1
  3
ACAD_GROUP
350
D
  3
ACAD_LAYOUT
350
1A
  3
ACAD_MLINESTYLE
350
17
  3
ACAD_PLOTSETTINGS
350
19
  3
ACAD_PLOTSTYLENAME
350
E
  3
ACAD_TABLESTYLE
350
64B
  3
ACAD_VISUALSTYLE
350
2A
  0
DICTIONARY
  5
D
102
{ACAD_REACTORS
330
C
102
}
330
C
100
AcDbDictionary
281
     1
  0
DICTIONARY
  5
1A
102
{ACAD_REACTORS
330
C
102
}
330
C
100
AcDbDictionary
281
     1
  3
Layout1
350
1E
  3
Layout2
350
26
  3
Model
350
22
  0
DICTIONARY
  5
17
102
{ACAD_REACTORS
330
C
102
}
330
C
100
AcDbDictionary
281
     1
  3
Standard
350
18
  0
DICTIONARY
  5
19
102
{ACAD_REACTORS
330
C
102
}
330
C
100
AcDbDictionary
281
     1
  0
ACDBDICTIONARYWDFLT
  5
E
102
{ACAD_REACTORS
330
C
102
}
330
C
100
AcDbDictionary
281
     1
  3
Normal
350
F
100
AcDbDictionaryWithDefault
340
F
  0
DICTIONARY
  5
64B
102
{ACAD_REACTORS
330
C
102
}
330
C
100
AcDbDictionary
281
     1
  0
DICTIONARY
  5
2A
102
{ACAD_REACTORS
330
C
102
}
330
C
100
AcDbDictionary
281
     1
  3
2dWireframe
350
2F
  3
3D Hidden
350
31
  3
3dWireframe
350
30
  3
Basic
350
32
  3
Brighten
350
36
  3
ColorChange
350
3A
  3
Conceptual
350
34
  3
Dim
350
35
  3
Facepattern
350
39
  3
Flat
350
2B
  3
FlatWithEdges
350
2C
  3
Gouraud
350
2D
  3
GouraudWithEdges
350
2E
  3
Linepattern
350
38
  3
Realistic
350
33
  3
Thicken
350
37
  0
LAYOUT
  5
1E
102
{ACAD_REACTORS
330
1A
102
}
330
1A
100
AcDbPlotSettings
  1

  2
none_device
  4

  6

 40
0.0
 41
0.0
 42
0.0
 43
0.0
 44
0.0
 45
0.0
 46
0.0
 47
0.0
 48
0.0
 49
0.0
140
0.0
141
0.0
142
1.0
143
1.0
 70
   688
 72
     0
 73
     0
 74
     5
  7

 75
    16
 76
     0
 77
     2
 78
   300
147
1.0
148
0.0
149
0.0
100
AcDbLayout
  1
Layout1
 70
     1
 71
     1
 10
0.0
 20
0.0
 11
12.0
 21
9.0
 12
0.0
 22
0.0
 32
0.0
 14
1.000000000000000E+20
 24
1.000000000000000E+20
 34
1.000000000000000E+20
 15
-1.000000000000000E+20
 25
-1.000000000000000E+20
 35
-1.000000000000000E+20
146
0.0
 13
0.0
 23
0.0
 33
0.0
 16
1.0
 26
0.0
 36
0.0
 17
0.0
 27
1.0
 37
0.0
 76
     0
330
1B
  0
LAYOUT
  5
26
102
{ACAD_REACTORS
330
1A
102
}
330
1A
100
AcDbPlotSettings
  1

  2
none_device
  4

  6

 40
0.0
 41
0.0
 42
0.0
 43
0.0
 44
0.0
 45
0.0
 46
0.0
 47
0.0
 48
0.0
 49
0.0
140
0.0
141
0.0
142
1.0
143
1.0
 70
   688
 72
     0
 73
     0
 74
     5
  7

 75
    16
 76
     0
 77
     2
 78
   300
147
1.0
148
0.0
149
0.0
100
AcDbLayout
  1
Layout2
 70
     1
 71
     2
 10
0.0
 20
0.0
 11
0.0
 21
0.0
 12
0.0
 22
0.0
 32
0.0
 14
0.0
 24
0.0
 34
0.0
 15
0.0
 25
0.0
 35
0.0
146
0.0
 13
0.0
 23
0.0
 33
0.0
 16
1.0
 26
0.0
 36
0.0
 17
0.0
 27
1.0
 37
0.0
 76
     0
330
23
  0
LAYOUT
  5
22
102
{ACAD_REACTORS
330
1A
102
}
330
1A
100
AcDbPlotSettings
  1

  2
none_device
  4

  6

 40
0.0
 41
0.0
 42
0.0
 43
0.0
 44
0.0
 45
0.0
 46
0.0
 47
0.0
 48
0.0
 49
0.0
140
0.0
141
0.0
142
1.0
143
1.0
 70
  1712
 72
     0
 73
     0
 74
     0
  7

 75
     0
 76
     0
 77
     2
 78
   300
147
1.0
148
0.0
149
0.0
100
AcDbLayout
  1
Model
 70
     1
 71
     0
 10
0.0
 20
0.0
 11
12.0
 21
9.0
 12
0.0
 22
0.0
 32
0.0
 14
1.000000000000000E+20
 24
1.000000000000000E+20
 34
1.000000000000000E+20
 15
-1.000000000000000E+20
 25
-1.000000000000000E+20
 35
-1.000000000000000E+20
146
0.0
 13
0.0
 23
0.0
 33
0.0
 16
1.0
 26
0.0
 36
0.0
 17
0.0
 27
1.0
 37
0.0
 76
     0
330
1F
331
29
  0
MLINESTYLE
  5
18
102
{ACAD_REACTORS
330
17
102
}
330
17
100
AcDbMlineStyle
  2
Standard
 70
     0
  3

 62
   256
 51
90.0
 52
90.0
 71
     2
 49
0.5
 62
   256
  6
BYLAYER
 49
-0.5
 62
   256
  6
BYLAYER
  0
ACDBPLACEHOLDER
  5
F
102
{ACAD_REACTORS
330
E
102
}
330
E
  0
VISUALSTYLE
  5
2F
102
{ACAD_REACTORS
330
2A
102
}
330
2A
100
AcDbVisualStyle
  2
2dWireframe
 70
     4
 71
     0
 72
     2
 73
     0
 90
        0
 40
-0.6
 41
-30.0
 62
     5
 63
     7
421
 16777215
 74
     1
 91
        4
 64
     7
 65
   257
 75
     1
175
     1
 42
1.0
 92
        0
 66
   257
 43
1.0
 76
     1
 77
     6
 78
     2
 67
     7
 79
     5
170
     0
171
     0
290
     0
174
     0
 93
        1
 44
0.0
173
     0
291
     0
 45
0.0
1001
ACAD
1000
AcDbSavedByObjectVersion
1070
     0
  0
VISUALSTYLE
  5
31
102
{ACAD_REACTORS
330
2A
102
}
330
2A
100
AcDbVisualStyle
  2
3D Hidden
 70
     6
 71
     1
 72
     2
 73
     2
 90
        0
 40
-0.6
 41
-30.0
 62
     5
 63
     7
421
 16777215
 74
     2
 91
        2
 64
     7
 65
   257
 75
     2
175
     1
 42
40.0
 92
        0
 66
   257
 43
1.0
 76
     1
 77
     6
 78
     2
 67
     7
 79
     3
170
     0
171
     0
290
     0
174
     0
 93
        1
 44
0.0
173
     0
291
     0
 45
0.0
1001
ACAD
1000
AcDbSavedByObjectVersion
1070
     0
  0
VISUALSTYLE
  5
30
102
{ACAD_REACTORS
330
2A
102
}
330
2A
100
AcDbVisualStyle
  2
3dWireframe
 70
     5
 71
     0
 72
     2
 73
     0
 90
        0
 40
-0.6
 41
-30.0
 62
     5
 63
     7
421
 16777215
 74
     1
 91
        4
 64
     7
 65
   257
 75
     1
175
     1
 42
1.0
 92
        0
 66
   257
 43
1.0
 76
     1
 77
     6
 78
     2
 67
     7
 79
     5
170
     0
171
     0
290
     0
174
     0
 93
        1
 44
0.0
173
     0
291
     0
 45
0.0
1001
ACAD
1000
AcDbSavedByObjectVersion
1070
     0
  0
VISUALSTYLE
  5
32
102
{ACAD_REACTORS
330
2A
102
}
330
2A
100
AcDbVisualStyle
  2
Basic
 70
     7
 71
     1
 72
     0
 73
     1
 90
        0
 40
-0.6
 41
-30.0
 62
     5
 63
     7
421
 16777215
 74
     0
 91
        4
 64
     7
 65
   257
 75
     1
175
     1
 42
1.0
 92
        8
 66
     7
 43
1.0
 76
     1
 77
     6
 78
     2
 67
     7
 79
     5
170
     0
171
     0
290
     0
174
     0
 93
        1
 44
0.0
173
     0
291
     1
 45
0.0
1001
ACAD
1000
AcDbSavedByObjectVersion
1070
     0
  0
VISUALSTYLE
  5
36
102
{ACAD_REACTORS
330
2A
102
}
330
2A
100
AcDbVisualStyle
  2
Brighten
 70
    12
 71
     2
 72
     2
 73
     0
 90
        0
 40
-0.6
 41
-30.0
 62
     5
 63
     7
421
 16777215
 74
     1
 91
        4
 64
     7
 65
   257
 75
     1
175
     1
 42
1.0
 92
        8
 66
     7
 43
1.0
 76
     1
 77
     6
 78
     2
 67
     7
 79
     5
170
     0
171
     0
290
     0
174
     0
 93
        1
 44
50.0
173
     0
291
     1
 45
0.0
1001
ACAD
1000
AcDbSavedByObjectVersion
1070
     0
  0
VISUALSTYLE
  5
3A
102
{ACAD_REACTORS
330
2A
102
}
330
2A
100
AcDbVisualStyle
  2
ColorChange
 70
    16
 71
     2
 72
     2
 73
     3
 90
        0
 40
-0.6
 41
-30.0
 62
     5
 63
     8
421
  8421504
 74
     1
 91
        4
 64
     7
 65
   257
 75
     1
175
     1
 42
1.0
 92
        8
 66
     8
424
  8421504
 43
1.0
 76
     1
 77
     6
 78
     2
 67
     7
 79
     5
170
     0
171
     0
290
     0
174
     0
 93
        1
 44
0.0
173
     0
291
     1
 45
0.0
1001
ACAD
1000
AcDbSavedByObjectVersion
1070
     0
  0
VISUALSTYLE
  5
34
102
{ACAD_REACTORS
330
2A
102
}
330
2A
100
AcDbVisualStyle
  2
Conceptual
 70
     9
 71
     3
 72
     2
 73
     0
 90
        0
 40
-0.6
 41
-30.0
 62
     5
 63
     7
421
 16777215
 74
     2
 91
        2
 64
     7
 65
   257
 75
     1
175
     1
 42
40.0
 92
        8
 66
     7
 43
1.0
 76
     1
 77
     6
 78
     2
 67
     7
 79
     3
170
     0
171
     0
290
     0
174
     0
 93
        1
 44
0.0
173
     0
291
     0
 45
0.0
1001
ACAD
1000
AcDbSavedByObjectVersion
1070
     0
  0
VISUALSTYLE
  5
35
102
{ACAD_REACTORS
330
2A
102
}
330
2A
100
AcDbVisualStyle
  2
Dim
 70
    11
 71
     2
 72
     2
 73
     0
 90
        0
 40
-0.6
 41
-30.0
 62
     5
 63
     7
421
 16777215
 74
     1
 91
        4
 64
     7
 65
   257
 75
     1
175
     1
 42
1.0
 92
        8
 66
     7
 43
1.0
 76
     1
 77
     6
 78
     2
 67
     7
 79
     5
170
     0
171
     0
290
     0
174
     0
 93
        1
 44
-50.0
173
     0
291
     1
 45
0.0
1001
ACAD
1000
AcDbSavedByObjectVersion
1070
     0
  0
VISUALSTYLE
  5
39
102
{ACAD_REACTORS
330
2A
102
}
330
2A
100
AcDbVisualStyle
  2
Facepattern
 70
    15
 71
     2
 72
     2
 73
     0
 90
        0
 40
-0.6
 41
-30.0
 62
     5
 63
     7
421
 16777215
 74
     1
 91
        4
 64
     7
 65
   257
 75
     1
175
     1
 42
1.0
 92
        8
 66
     7
 43
1.0
 76
     1
 77
     6
 78
     2
 67
     7
 79
     5
170
     0
171
     0
290
     0
174
     0
 93
        1
 44
0.0
173
     0
291
     1
 45
0.0
1001
ACAD
1000
AcDbSavedByObjectVersion
1070
     0
  0
VISUALSTYLE
  5
2B
102
{ACAD_REACTORS
330
2A
102
}
330
2A
100
AcDbVisualStyle
  2
Flat
 70
     0
 71
     2
 72
     1
 73
     1
 90
        2
 40
-0.6
 41
30.0
 62
     5
 63
     7
421
 16777215
 74
     0
 91
        4
 64
     7
 65
   257
 75
     1
175
     1
 42
1.0
 92
        8
 66
     7
 43
1.0
 76
     1
 77
     6
 78
     2
 67
     7
 79
     5
170
     0
171
     0
290
     0
174
     0
 93
       13
 44
0.0
173
     0
291
     1
 45
0.0
1001
ACAD
1000
AcDbSavedByObjectVersion
1070
     0
  0
VISUALSTYLE
  5
2C
102
{ACAD_REACTORS
330
2A
102
}
330
2A
100
AcDbVisualStyle
  2
FlatWithEdges
 70
     1
 71
     2
 72
     1
 73
     1
 90
        2
 40
-0.6
 41
30.0
 62
     5
 63
     7
421
 16777215
 74
     1
 91
        4
 64
     7
 65
   257
 75
     1
175
     1
 42
1.0
 92
        0
 66
   257
 43
1.0
 76
     1
 77
     6
 78
     2
 67
     7
 79
     5
170
     0
171
     0
290
     0
174
     0
 93
       13
 44
0.0
173
     0
291
     1
 45
0.0
1001
ACAD
1000
AcDbSavedByObjectVersion
1070
     0
  0
VISUALSTYLE
  5
2D
102
{ACAD_REACTORS
330
2A
102
}
330
2A
100
AcDbVisualStyle
  2
Gouraud
 70
     2
 71
     2
 72
     2
 73
     1
 90
        2
 40
-0.6
 41
30.0
 62
     5
 63
     7
421
 16777215
 74
     0
 91
        4
 64
     7
 65
   257
 75
     1
175
     1
 42
1.0
 92
        0
 66
     7
 43
1.0
 76
     1
 77
     6
 78
     2
 67
     7
 79
     5
170
     0
171
     0
290
     0
174
     0
 93
       13
 44
0.0
173
     0
291
     1
 45
0.0
1001
ACAD
1000
AcDbSavedByObjectVersion
1070
     0
  0
VISUALSTYLE
  5
2E
102
{ACAD_REACTORS
330
2A
102
}
330
2A
100
AcDbVisualStyle
  2
GouraudWithEdges
 70
     3
 71
     2
 72
     2
 73
     1
 90
        2
 40
-0.6
 41
30.0
 62
     5
 63
     7
421
 16777215
 74
     1
 91
        4
 64
     7
 65
   257
 75
     1
175
     1
 42
1.0
 92
        0
 66
   257
 43
1.0
 76
     1
 77
     6
 78
     2
 67
     7
 79
     5
170
     0
171
     0
290
     0
174
     0
 93
       13
 44
0.0
173
     0
291
     1
 45
0.0
1001
ACAD
1000
AcDbSavedByObjectVersion
1070
     0
  0
VISUALSTYLE
  5
38
102
{ACAD_REACTORS
330
2A
102
}
330
2A
100
AcDbVisualStyle
  2
Linepattern
 70
    14
 71
     2
 72
     2
 73
     0
 90
        0
 40
-0.6
 41
-30.0
 62
     5
 63
     7
421
 16777215
 74
     1
 91
        4
 64
     7
 65
   257
 75
     7
175
     7
 42
1.0
 92
        8
 66
     7
 43
1.0
 76
     1
 77
     6
 78
     2
 67
     7
 79
     5
170
     0
171
     0
290
     0
174
     0
 93
        1
 44
0.0
173
     0
291
     1
 45
0.0
1001
ACAD
1000
AcDbSavedByObjectVersion
1070
     0
  0
VISUALSTYLE
  5
33
102
{ACAD_REACTORS
330
2A
102
}
330
2A
100
AcDbVisualStyle
  2
Realistic
 70
     8
 71
     2
 72
     2
 73
     0
 90
        0
 40
-0.6
 41
-30.0
 62
     5
 63
     7
421
 16777215
 74
     1
 91
        0
 64
     7
 65
   257
 75
     1
175
     1
 42
1.0
 92
        8
 66
     8
424
  7895160
 43
1.0
 76
     1
 77
     6
 78
     2
 67
     7
 79
     5
170
     0
171
     0
290
     0
174
     0
 93
       13
 44
0.0
173
     0
291
     0
 45
0.0
1001
ACAD
1000
AcDbSavedByObjectVersion
1070
     0
  0
VISUALSTYLE
  5
37
102
{ACAD_REACTORS
330
2A
102
}
330
2A
100
AcDbVisualStyle
  2
Thicken
 70
    13
 71
     2
 72
     2
 73
     0
 90
        0
 40
-0.6
 41
-30.0
 62
     5
 63
     7
421
 16777215
 74
     1
 91
        4
 64
     7
 65
   257
 75
     1
175
     1
 42
1.0
 92
       12
 66
     7
 43
1.0
 76
     1
 77
     6
 78
     2
 67
     7
 79
     5
170
     0
171
     0
290
     0
174
     0
 93
        1
 44
0.0
173
     0
291
     1
 45
0.0
1001
ACAD
1000
AcDbSavedByObjectVersion
1070
     0
  0
ENDSEC
  0
EOF
